Acordes de Guitarra » P »Panteón Rococó » La consentida (concha) (Tab)

La consentida (concha)
Panteón Rococó

Letras, Acordes y Tabs para Guitarra, Bajo y Ukulele

  • Este bajeo corresponde a la parte que va despues de los
    bongoes y congas
    
    g--------------------------------------------------------
    d-0-4-0---4-----------2-2-0-4-0---4-4-4b5-4-5-7-5-4-5-4-2
    a-------2---2---2---0-----------2------------------------
    e-------------3---3--------------------------------------
    
    Toda la gente que se encuentre aqui presente
    quiero que escuche este canto popular
    toda la gente que disfruta de la fiesta
    la invitamos a bailar con esta orquesta
    
    
    y si aquel viene y nos reprime
    quiero que sepa que nosotros somos miles
    que estamos hartos de pendejadas
    mejor que se calle y se vaya ala chingada
    
    g--------------------------------------------------------
    d-0-0-3-0-0-5-0-0-3-0-0-5----0-5-------------------------
    a--------------------------------------------------------
    e--------------------------------------------------------
    
    *se repite el intro*
    
    Toda la gente esta pidiendo tu renuncia
    se ha cansado de jaladas y de burlas
    la gente que habla
    
  • +
    ¡Colabora con nosotros!
    Envíanos tu versión de esta canción






[La consentida (concha) chords][La consentida (concha) cifra]
© LaCuerda.net · aviso legal · privacidad · es · en · pt · contacto
DINAMICO