Acordes de Guitarra » P »Panteón Rococó » Arréglame el alma (Tab)

Arréglame el alma
Panteón Rococó

Letras, Acordes y Tabs para Guitarra, Bajo y Ukulele

  • Intro:   C C B B C C [D B-C-D-D# (pueden tocarse con quintas o mayores)]
    
    Em  B   Em   B
    
      Em                                              B   A
    Quisiera que esta noche tu vinieras me dieras tu mano
      Em                                          B   A
    necesito que hoy vengas y que sientas mi corazón
    Em                     B              A
    ven siente como palpita como se muere por tu calor
    Em                     B              A
    ven siente como suspira como se muere por este dolor
    
    
         C                       B
    Ven vamos ven y arréglame el alma
         C
    ven vamos ven y arréglame el corazón
    
    
    
  • Espero les sirva, exelente cancion de los panteones!
    BY CONKER_VNDIKTTO
    
    
    G|------------------------------------------------|
    D|---------------------------------2-2-2-3-2------|
    A|-3-3-3-3-3-3-3-3-3-3-3-3-3-3-3-3-----------3-0--|
    E|------------------------------------------------|
    
    G|-------------------------------------------------|
    D|-------------------------------------------------|
    A|-2-2-2-2-2-2-2-2-2-2-2-2-2-2-2-2-5-5-5-5-4-4-4-4-|
    E|-------------------------------------------------|
    
    G|-----------------------------------------------|
    D|---------------------------------2-2-2-3-2-----|
    A|-3-3-3-3-3-3-3-3-3-3-3-3-3-3-3-3-----------3-0-|
    E|-----------------------------------------------|
    
    G|-----------------------------------------------------------------|
    D|-----------------------------------------------------------------|
    A|-5-5-5-5-5-5-5-5-5-5-5-5-5-5-5-5-0-0-0-0-2-2-2-2-3-3-3-3-5-5-5-5-|
    E|-----------------------------------------------------------------|
    
    G|--------------------
  • +
    ¡Colabora con nosotros!
    Envíanos tu versión de esta canción

Letra de Arréglame el alma
Quisiera que esta noche tu vinieras me dieras tu mano
necesito que hoy vengas y que sientas mi corazón
ven siente como palpita como se muere por tu calor
ven siente como suspira como se muere por este dolor
Ven vamos ven y arréglame el alma
ven vamos ven y arréglame el corazón
quiero que vengas y desnudes este cuerpo
quiero que vengas y desnudes esta alma
tenerte aqui entre mis brazos
verte de nuevo y hacerte el amor
Ho,ho,ho,ho,ho¡¡ Necesito tu calor yo me muero por tu amor baby
Ho,ho,ho,ho,ho¡¡ necesito tu calor yo me muero por tu amor nena
Ho,ho,ho,ho,ho¡¡ Necesito tu calor yo me muero por tu amor baby
Ho, Ho, ho¡¡
Necesito tu calor yo me muero por tu amor necesito tu calor
Si vieras no comprendo tanto tiempo de andar de aperrado
no puedo entender como es que no te dejo de amar No no no
una sarta de arrebatos que siempre acaban con mi razón
adrenalina bien pura es una dulce y terrible adicción
Ven vamos ven y arréglame el alma
ven vamos ven y arréglame el corazón
yo Necesito que Desnudes este cuerpo
Yo Necesito que desnudes esta alma
tenerte aquí entre mis brazos
verte de nuevo y hacerte el amor
Ho,ho,ho,ho,ho¡¡ Necesito tu calor yo me muero por tu amor baby
Ho,ho,ho,ho,ho¡¡ necesito tu calor yo me muero por tu amor nena
Ho,ho,ho,ho,ho¡¡ Necesito tu calor yo me muero por tu amor baby
Ho, Ho, ho¡¡
Necesito tu calor yo me muero por tu amor necesito tu calor
Ay Esto que yo siento esto que presiento que no me deja vivir
esto que me crece esto que me excita no ne deja no me deja existir
me has enseñado tu
Ho,ho,ho,ho,ho¡¡ Necesito tu calor yo me muero por tu amor baby
Ho,ho,ho,ho,ho¡¡ necesito tu calor yo me muero por tu amor nena
Ho,ho,ho,ho,ho¡¡ Necesito tu calor yo me muero por tu amor baby
Ho, Ho, ho¡¡
Necesito tu calor yo me muero por tu amor necesito tu calor
Ho,ho,ho,ho,ho¡¡
Dudas o comentarios a alex_guitarro@hotmail.com Buena suerte a todos!!!




[Arréglame el alma chords][Arréglame el alma cifra]
© LaCuerda.net · aviso legal · privacidad · es · en · pt · contacto