Acordes de Guitarra » P »Panteón Rococó » La dosis perfecta (Tab)

La dosis perfecta
Panteón Rococó

Letras, Acordes y Tabs para Guitarra, Bajo y Ukulele

  • Cm      Fm
    Hoy te vas   pero se que volveras
    
             Cm                     A#
    por que lo que yo te di no lo encontrarás jamás
    
           Cm           Fm          A#
     esas noches, esos dias cuando tu te retorcias
    
             B             Cm                 Fm
    en mis brazos cuando veiamos estrellas y tu eras
    
                  Cm                     A#
    una de ellas de esas que abrazan la tierra con su luz
    
               Cm                    Fm
    y hoy me llamas y me dices que empacas tu presencia
    
          Cm                                    A#  B   Gm
    que has hecho las maletas que hoy dices adioooooos.
    
  •           C#m      F#m
    Hoy te vas   pero se que volveras
    
             C#m                     B
    por que lo que yo te di no lo encontrarás jamás
    
           C#m           F#m          B
     esas noches, esos dias cuando tu te retorcias
    
             C             C#m                 F#m
    en mis brazos cuando veiamos estrellas y tu eras
    
                  C#m                     B
    una de ellas de esas que abrazan la tierra con su luz
    
               C#m                    F#m
    y hoy me llamas y me dices que empacas tu presencia
    
          C#m                                    B C G#m
    que has hecho las maletas que hoy dices adioooooos.
    
  • Cm      Fm
    Hoy te vas   pero se que volveras
    
             Cm                     A#
    por que lo que yo te di no lo encontrarás jamás
    
           Cm           Fm          A#
     esas noches, esos dias cuando tu te retorcias
    
             B             Cm                 Fm
    en mis brazos cuando veiamos estrellas y tu eras
    
                  Cm                     A#
    una de ellas de esas que abrazan la tierra con su luz
    
               Cm                    Fm
    y hoy me llamas y me dices que empacas tu presencia
    
          Cm                                    A#  B   Gm
    que has hecho las maletas que hoy dices adioooooos.
    
  • Aqui corrijo muchos detalles de acodes en el bajo que hacian
    falta en la transcripcion que hicieron anteriormente.
    
    
    Este es el inicio de la cancion, primero entra la voz y despues se
    unen los instrumentos, cuando dice VAS hasta entonces entra todo.
    
      Cm             Fm            Cm         A#
    G|------------------------------------------------------|
    D|------------------------------------------------------|
    A|-3--5--6--5----------3-------3--5--6--5-----5--8--5---|
    E|---------------1--4-----4----------------6----------6-|
    
    
       Cm         Fm           A#         B
    G|------------------------------------------------------|
    D|------------------------------------------------------|
    A|-3--5--6--5--------3------1---------2-----------------|
    E|-------------1--4-----4-------------------------------|
    
       Cm         Fm            Cm         A#
    G|------------------------------------------------------|
    D|------------------------------------------------------|
    A|-3--3--3--3---------------1--1--1--1-
  • AQUÍ TIENEN ESTA TABLATURA ES LA PRIMERA QUE SUBO
    
    ESPERO LES AYUDE A SACAR ESTA ROLA ESTA COMO AL 97% CHEQUENLA..
    
    ¡¡¡SALUDOS!!! CUALQUIER DUDA O COMENTARIO MI CORREO ES
    
    alezzandro_19@hotmail.com OJALA PUEDAN DEJAR SU COMENTARIO…
    
      Cm             Fm                 Cm         A#
    G|------------------------------------------------------|
    D|----------3----------------------------3--------3-5-3-|
    A|-3--5--6------------3--3------3--5--6---------5--5----|
    E|---------------1--1---1---------------------6---------|
    
    
       Cm         Fm            A#         B
    G|------------------------------------------------------|
    D|----------3-------------------------------------------|
    A|-3--5--6-----------3-------1-1--------2---------------|
    E|-------------1--1-----1-------------------------------|
    
       Cm          G#           Cm         A#
    G|------------------------------------------------------|
    D|------------------------------------------------------|
    A|---3--3--3---3-------------3--3--3---3--1-1-
  • +
    ¡Colabora con nosotros!
    Envíanos tu versión de esta canción
  • Tutorial
    HD
    Como tocar LA DOSIS PERFECTA en guitarra - Panteon Rococo [Tutorial Somos Posers]
    3:55

Letra de La dosis perfecta
Hoy te vas pero se que volveras
por que lo que yo te di no lo encontrarás jamás
esas noches, esos dias cuando tu te retorcias
en mis brazos cuando veiamos estrellas y tu eras
una de ellas de esas que abrazan la tierra con su luz
y hoy me llamas y me dices que empacas tu presencia
que has hecho las maletas que hoy dices adioooooos.
Y después de romper el cielo juntos esa forma
tan tuya de hacer el amor y estallar, al llegar
no no puedo aceptar que hoy te vallas si aun me debes
un cuarto de mil batallas y cobrarme yo no quiero
no quiero cobrarlo solo quiero que tu te quedes aqui
Hoy mi cuerpo necesita de ti y saber que la dosis
perfecta esta en tus caderas, en tus besos tu sonrisa
tu cabello y ese cuerpo que me eriza
Hoy mi alma sabe que estas bien pero tu dime tu
dime quien estara para aliviar mi dolor si ya no
estas tu.
Y después de romper el cielo juntos esa forma
tan tuya de hacer el amor y estallar, al llegar
no no puedo aceptar que hoy te vallas si aun me debes
un cuarto de mil batallas y cobrarme yo no quiero
no quiero cobrarlo solo quiero que tu te quedes aqui
Hoy mi cuerpo necesita de ti y saber que la dosis
perfecta esta en tus caderas, en tus besos tu sonrisa
tu cabello y ese cuerpo que me eriza
Hoy mi alma sabe que estas bien pero tu dime tu
dime quien estara para aliviar mi dolor si ya no
estas tu.
Las mismas notas del coro:
Hoy mi cuerpo necesita de ti y saber que la dosis
perfecta esta en tus caderas, en tus besos tu sonrisa
tu cabello y ese cuerpo que me eriza
Hoy mi alma sabe que estas bien pero tu dime tu
dime quien estara para aliviar mi dolor si ya no
estas tu.




[La dosis perfecta chords][La dosis perfecta cifra]
© LaCuerda.net · aviso legal · privacidad · es · en · pt · contacto