Acordes de Guitarra » P »Panda » Si supieras (Tab)

Si supieras
Panda

  • Letra y Acordes
    G       A                C      D
      si supieras como te ves si supieras
    G       A                  C      D
      si supieras que se siente si supieras
    G         A                  C      D
      que yo tomo arroz con leche si supieras
    G        A              C       D
      y me muero por tenerte si supieras
    
    
    coro
    G     D            A
      y siempre he sido
                  C        G  
      siempre he sido aburrido
          D             A
      y siempre he sido
                 C          G
      con ganas de gustarte
          D            A
    
  • Letra y Acordes
    E A D  G  B  E
    X X 13 13 13 11
    
    Acordes   |  E A D G B E
    G#        |  4 6 6 5 4 4
    Bbm ó A#m |  6 8 8 4 4 4
    C#        |  4 4 6 6 6 4
    D#        |  6 6 8 8 8 6
    
    INTRO CON RITMO NORMAL G# Bbm C# D# (X4)
    
    VERSO:
    
    G#       Bbm             C#       D#
      si supieras como te ves, si supieras
    G#       Bbm                C#       D#
      si supieras que se siente, si supieras
    G#        Bbm                C#       D#
      que yo tomo arroz con leche, si supieras
    G#       Bbm             C#       D#
    
  • Letra y Acordes
    D# G# C# F# A# D#
    
    
    
    A5       B5                D5      E5
      si supieras como te ves si supieras
    A5       B5                  D5      E5
      si supieras que se siente si supieras
    A5         B5                  D5      E5
      que yo tomo arroz con leche si supieras
    A5        B5              D5       E5
      y me muero por tenerte si supieras
    
    
    coro
    A5     E5            B5
      y siempre he sido
                  D5
      siempre he sido aburrido
    A5      E5             B5
    
  • Tablatura
    |---9------9h8----8---11-8----9-8---8-|
    |------9------------------------------|
    |-8------8------8---8------8------8---|
    |-------------------------------------|
    |-------------------------------------|
    |-------------------------------------|
    
    Despues entran los demas instrumentos
    
    Guitarra 1 o principal (x2) Riff 1
    |-------------------------------------------------|
    |-------------------------------------------------|
    |-------------------------------------------------|
    |-666-8-8-666-8-8-8/10-10-10-8-10-10/11-11-10-8-6-|
    |-------------------------------------------------|
    |-------------------------------------------------|
    
    Enseguida este [x2]   Riff 2
    |----------------------------------------------------
    |-999-11-11-999-11-11-11/13-13-13-11-13-13/14-13-11-9
    
  • Tablatura
    |---8------9-8----8---11-8----9-8---8*|
    |------9------------------------------|
    |-8------8------8---8------8------8---|
    |-------------------------------------|
    |-------------------------------------|
    |-------------------------------------|
    
    |---------------------------------------------|
    |---------------------------------------------|
    |---------------------------------------------|
    |-66-8--66--8-8/10-10-10-8-10-10/11-11-10-8-6-|
    |---------------------------------------------|
    |---------------------------------------------|
    
    |-----------------------------------------------|
    |-99-11--99--11-11/13-13-13-11-13-13/14-13-11-9-|
    |-----------------------------------------------|
    |-----------------------------------------------|
    |-----------------------------------------------|
    |-----------------------------------------------|
    
  • Tab p/Bajo
    INTRO : 
    
    G------------------------------------------
    D------------------------------------------
    A---------------------44444444-66666666----
    E-1/44444444-66666666----------------------
    
    (cada riff se toca 2 veces cada uno).
    
    g----------------------------------------------------
    d----------------------------------------------------
    a|---------------------------------------------------| (Riff 1)
    e|-5-5-5-5-7-7-5-5-5-5-7-7-9-9-9-9-9-7-9-10-9-7------|
    
    
    g----------------------------------------------------
    d----------------------------------------------------
    a|5-5-5-5-7-7-5-5-5-5-7-7-9-9-9-9-9-7-9-10-9-7-5-----| (Riff 2)
    e|---------------------------------------------------|
    
    
    VERSO: SI SUPIERAS como te ves, si supieras
    G-----------------------------------------
    D-----------------------------------------
    A--------------------44444444-66666666----
    E-44444444-66666666------------------------
    
    *CORO 
    
    Y SIEMPRE HE SIDO, SIEMPRE HE SIDO ABURRIDO
    
    G-------------
  • Batería
    C= crash          #= Apagar
    Rd= ride          b= corona
    HH= hi-hat        x= cerrados  s= medio abiertos  X= completamente abiertos
    S= tarola         f= con las 2 baquetas.
    t= tom
    F = Tom de piso   g= nota fantasma    d= doble
    B= Bombo
    
             x4
    HH|----------------|--------X-X-X-X-|
    S |----------------|----------------|
    B |----------------|----------------|
    
    
      INTRO
                               x3
    C |X---------------|----------------|
    HH|--X-X-X-X-X-X-X-|X-X-X-X-X-X-X-X-|   x2
    S |--oo--o---oo--o-|--oo--o---oo--o-|
    B |o----o--o----o--|o----o--o----o--|
    
    
      VERSO 1
                              x6
    C |X---------------|----------------|----------------|
    HH|--x-x-x-x-x-x-x-|X-x-x-x-x-x-x-x-|X-x-x-x-x-x-x-X-|
    S |--o---o---o---o-|--o---o---o---o-|--o---o---o---o-|
    B |o----o-o-o---o--|o----o-o-o---o--|o----o-o-----o--|
    
    
    HH|s-s-s-s-s-s-s-s-|s-s-s-s-s-s-s-s-|s-s-s-s-s-s-s-s-|s-s-s-s-s-s-s-s-|
    S |--o---o---o---o-|--o---o---o---o-|--o---o---o---o-|--o---o---o---o-|
    B
  • +
    ¡Colabora con nosotros!
    Envíanos tu versión de esta canción

Letra de Si supieras
si supieras como te ves si supieras
si supieras que se siente si supieras
que yo tomo arroz con leche si supieras
y me muero por tenerte si supieras
y siempre he sido
siempre he sido aburrido
y siempre he sido
con ganas de gustarte
y siempre he sido
siempre he sido aburrido
y siempre he sido
ayúdame a cambiar
Verso II
si supieras mi secreto si supieras
si supieras que es en serio si supieras
pienso que tu eres el cielo si supieras
pero yo no te merezco si supieras



© LaCuerda.net · aviso legal · privacidad · contacto