Acordes de Guitarra » O »La Oreja de Van Gogh » La Playa (Tab)

La Playa
La Oreja de Van Gogh

Letras, Acordes y Tabs para Guitarra, Bajo y Ukulele

  • E|------------------------------------------------------|
    A|------------------------------------------------------|
    D|----------------6---7-6-------------------------------|
    G|-7------7-9----7---7----9-7-6-----------7--9------6/7-|
    B|------7-------7---7-----------9-7-----7-------5/7-----|
    E|------------------------------------------------------|
    
    
    LA-MI-FA#m-RE
    LA-MI
    
    LA            MI
    No si aun me recuerdas,
    FA#m               RE
    nos conocimos al tiempo,
                      LA
    tú, el mar y el cielo
        MI
    y quien me trajo a ti.
    
    
  •   LA       MI     F#m      RE     REm    DO# *1
    
     INTRO: LA MI F#m RE LA MI LA
    LA                   MI
      No sé si aún me recuerdas,
    F#m                 RE
      nos conocimos al tiempo
                     LA
    tú, el mar y el cielo
               MI
    y quién me trajo a ti.
    
    LA               MI
      Abrazaste mis abrazos
    F#m                RE
      vigilando aquel momento,
                      LA
    aunque fuera el primero,
             MI
    y lo guardara para mí.
    
  •    A       E   F#m     D           A      E     A
    e----------------------------------------------------
    B----------------------------------------------------
    G---------------6----6/7-6---------------------------
    D--------7-9---7----7------9-7-6--------7-9----5/7---
    A--7--7-------7----7-------------9-7---7------7------
    E--------------------------------------------5-------
    
    A                   E     Fdim              Fdim   123131
      No sé si aun me recuerdas,
    F#m                   D
       nos conocimos al tiempo,
                      A
    tú el mar y el cielo,
                  E
    y quien me trajo a ti.
    
    (mismos acordes)
    Abrazaste mis abrazos,
    vigilando aquel momento,
    
  •    A     E      F#m     D     A      E        A
    E--------------------------------------------------
    B--------0------2h3-2----------------0-------------
    G------2------2-------4-2-1--------2---------------
    D--2-2------2---------------4-2--2----------2h7----
    A---------------------------------------0-2--------
    E--------------------------------------------------
                                                 
    
    Intro1:
    
     A      E    F#m    D             A    E    A
    E---------------------------------------------
    B---------------------------------------------
    G-------------6-----7-6-----------------------
    D-7---7-9---7-----7-----9-7-6-------7-----6-7-
    A---7-----7-----7-------------9-7-7---567-----
    E---------------------------------------------
    
    Durante la estrofa:
    
  • E||--0-0-0---------0----|-0-7-5-4-2-|--------------0-0-------||
    B||--------2-3-2-0------|-----------|----2-2-2-2-3-----3-----||
    G||---------------------|-----------|------------------------||
    D||---------------------|-----------|------------------------||
    A||---------------------|-----------|------------------------||
    E||---------------------|-----------|------------------------||
    No se si aun me recuerdas            nos conocimos al tiempo.
    
    E||--2-0-0-0-0-------|-----0-5-|------------0--0------||
    B||------------2-----|-3-2-----|---3--2--0------------||
    G||------------------|---------|----------------------||
    D||------------------|---------|----------------------||
    A||------------------|---------|----------------------||
    E||------------------|---------|----------------------||
    tu, el mar y el cielo           Quien me trajo a ti
    
    E||--2-2-0-----1---------|------0--------0---0---1---||
    B||--------2-2---2-0-----|--2-2----0-2-3---2---2-----||
    G||-------------------2--|--
  • ESTA ROLA SE LA DEDICO AL AMOR DE MI VIDA...
    NANCY YANIN FIGUEROA ROSAS
    DONDE ESTES SIEMPRE TE AMARE
    
    Un saludo, al L.I. José Antonio Carmona Valencia
    Director de “ACI”  LA MEJOR ESCUELA DE COMPUTACION
    DE TUXTEPEC OAXACA
    Pásenla Chido Bajistas)
    
    Intro:
    G ---------9-9-4---------------7-7--2--------------------
    D ---------------2-2-2----------------0-0------2---------
    A -0--0--0--------------------------------0--0---0--0--0-
    E ---------------------2--2--2---------------------------
    
    G -9-9--4------
    D --------2-2--
    A -------------
    E -------------
    
    Parte 02
    G ---------------------------------------------------------
    D ---------------------2--2--2-3--3---4--4--4-4--4-4--4--0-
    A -0-0--0--0-0-0--0--0--------------4----------------------
    E ---------------------------------------------------------
    
    G -----------------------------------------------------
    D -4-0--0--0-0--0-0-0-------------2-4-2--2--2--2-2--2--
    A --------------------0--0--0-0--0---------2-----------
    E -------------------------
  • es pero que les guste la verdad es muy facil de tocar
    
    LA PLAYA 
    
    6 6 6 5 (5) 5 (4) 6 – 5 5 5 5 (5) 6 6 (5) 
    (6) 6 6 6 6 5 -  5 (5) 5 (4) 6 6 
    
    6 6 6 5  (5) 5 (4) 6 – 5 5 5 5  (5)6 6 (5) 
      4 (6) 6 6 6 6 5 – 5 (5) 5 (4) 6 6 6 6 6
    
     (6) (6) 6 5 6 (6) (5) (5) 5 – 
     (6) (6) 6 5 (5) (5) 6 5 (6) 5 (6)
    
     (6) (7) (7) (7) 7 (8) 8  7 7 
    6 6 6 (6) (6) (5) 5
    
    4 (6) (6) 6 (6) 6 6 6 (6) (5) (5) 5 
    5 5 5 5 5 6 5 – 5 5 (4) 5 (4) 4
    
    4 (5) (5) (5) (5) (5) (5) 6 6 6 6  7 7 7  (7)
    4 (6) (6) (6) (6) 6 6  5 4 4 (4) 5 5 (4)
    se repite todo 
    y fin     gracias pollo por esta cancion
  • A             E
    E   E  E C#   D C#  B   E E B A G#F#
    NO SI AÚN ME RECUERDAS
    F#M                D
    C#  C#C#C# D   E  E   D
    NOS CONOCIMOS AL TIEMPO
                     A
    F#   E E    E    E C# D C#E A
    TU EL MAR Y EL CIELO
        E
    D    C# B     E  E       
    Y QUIEN ME TRAJO A TI
     A               E
    E   E  E C#   D C#  B   E E B A G#F#
    ABRAZASTE MIS ABRAZOS 
    F#M               D
    C#  C#C#C# D   E  E   D
    VIGILANDO AQUEL MOMENTO. 
                       A
    F#   E E    E    E C# D C#E A
    AUNQUE FUERA EL PRIMERO
        E
    D    C# B     E  E       
    Y LO GUARDARA PARA MI
    
    D     A     C       F#M
    F# F# E C# C#  F C# B  A.
    SI PUDIERA VOLVER A NACER 
    D     A     C       F#M
    C# C# E   B C#D E C#EC# F  
    TE VERÍA CADA DÍA AMANECER
       D             A
    D   E  F  F G  A A  E
    SONRIENDO COMO CADA VEZ
    E               A
    D  E E    B   A.
    COMO AQUELLA VEZ
    
    D                                             A
    A.  F# F#F# F#F#  F# F# F#   F#  F#  E   C# D  A.
    TE VOY A ESCRIBIR LA CANCIÓN MÁS BO
  • +
    ¡Colabora con nosotros!
    Envíanos tu versión de esta canción
  • Tutorial
    La Playa - la oreja de Van gogh - Como tocar en guitarra
    4:42

Letra de La Playa
No si aun me recuerdas,
nos conocimos al tiempo,
tú, el mar y el cielo
y quien me trajo a ti.
Abrazaste mis abrazos,
vigilando aquel momento
aunque fuera el primero
y lo guardara para mi.
Si pudiera volver a nacer
te vería cada día amanecer,
sonriendo como cada vez,
como aquella vez...
Te voy a escribir
la canción más bonita del mundo,
voy a capturar nuestra historia
en tan sólo un segundo,
y un día verás que este loco
de poco se olvida,
por mucho que pasen los años
de largo en su vida.
El día de la despedida
de esta playa de mi vida,
te hice una promesa:
volverte a ver así.
Más de cincuenta veranos
hace hoy que no nos vemos
ni tú, ni el mar, ni el cielo
ni quien me trajo a ti.
Si pudiera volver a nacer,
te vería cada día amanecer,
sonriendo como cada vez,
como aquella vez...
Te voy a escribir la canción
más bonita del mundo,
voy a capturar nuestra historia
en tan sólo un segundo,
y un día verás que este loco
de poco se olvida,
por mucho que pasen los años
de largo en su vida...
Y te voy a escribir la canción
más bonita del mundo,
voy a capturar nuestra historia
en tan sólo un segundo,
y un día verás que este loco
de poco se olvida,
por mucho que pasen los años
por mucho que pasen los años
de largo en su vida,
su vida...
su vida...




[La Playa chords][La Playa cifra]
© LaCuerda.net · aviso legal · privacidad · es · en · pt · contacto