Acordes de Guitarra » O »La Oreja de Van Gogh » Rosas (Tab)

Rosas
La Oreja de Van Gogh

Letras, Acordes y Tabs para Guitarra, Bajo y Ukulele

  •    G                     Am
    En un día de esos en que suelo pensar
            Em                   B
    “hoy va ser el día menos pensado”
         C                     G
    nos hemos cruzado, has decidido mirar
            D      C              G              G-D
    a los ojitos azules que ahora van a tu lado.
    
    G                  Am
    Cesde el momento en el que te conocí
        Em                      B
    resumiendo con prisas, tiempo de silencio.
        C                       G
    Te juro que a nadie le he vuelto a decir
           D        C          G                 G-D
    que tenemos el récord del mundo en querernos
    
    
    CORO
    
  •    A                      Bm
    En un día de estos en que suelo pensar
           F#m                 C#7
    Hoy va ser el día menos pensado
        D                     A
    Nos hemos cruzado has decidido  mirar
           E       D              A
    A los ojitos azules que ahora van a tu lado.
                               Bm
    Desde el momento en el que te conocí
        F#m                       C#7
    Resumiendo con prisas, tiempo _de silencio
        D                      A
    Te juro que a nadie le he vuelto a decir
          E         D          A
    Que tenemos el record del mundo en querernos
    
    
        F#m                  A
    Por eso esperaba con la carita empapada
    
  • A                          E
    En un día de estos en que suelo pensar
                 F#m                  C#m
    ' hoy va a ser el día menos pensado',
            F#m                       A           
    nos hemos cruzado, has decidido mirar,
          E       D                 A
    a los ojitos azules que ahora van a tu lado 
    
    A                          E
    Desde el momento en el que te conocí
                 F#m                  C#m
    resumiendo con prisas Tiempo de Silencio
    F#m                       A           
    te juro que a nadie le he vuelto a decir
          E       D                 A
    que tenemos el récord del mundo en querernos.
    
           F#m                  D
    Por eso esperaba con la carita empapada
    
  • LA                         SIm
    En un día de estos en que suelo pensar
              FA#m                 DO#m
    'hoy va a ser el día menos pensado',
          RE                    LA
    nos hemos cruzado, has decidido mirar,
          DO#m                     RE       LA
    a los ojitos azules que ahora van a tu lado 
    
    Desde el momento en el que te conocí
    resumiendo con prisas Tiempo de Silencio
    te juro que a nadie le he vuelto a decir
    que tenemos el récord del mundo en querernos.
         FA#m                   LA
    Por eso esperaba con la carita empapada
               DO#m                   RE        LA
    a que llegaras con rosas, con mil rosas para mí,
                                 MI
    porque ya sabes que me encantan esas cosas
                 RE                     LA
    
  •       LA                  LA                  LA
    e |-----------------------------------------------------------------|
    B |---------2--------------------2----------------------2-----------|
    G |-----2--------2-----------2--------2-------------2--------2------|
    D |---2---2----2---2-------2---2----2---2---------2---2----2---2----|
    A |-0-------------------0----------------------0--------------------|
    E |-----------------------------------------------------------------|
    
    
          LA         MI
    e |--------------------|
    B |---------0h2--------|
    G |-----2-------2---2--|
    D |---2---2-------2----|
    A |-0------------------|
    E |--------------------|
    
    
    
    
    
  • e |-----------------------------------------------------------------|
    B |---------2--------------------2----------------------2-----------|
    G |-----2--------2-----------2--------2-------------2--------2------|
    D |---2---2----2---2-------2---2----2---2---------2---2----2---2----|
    A |-0-------------------0----------------------0--------------------|
    E |-----------------------------------------------------------------|
    
    
    
    e |--------------------|
    B |---------0h2--------|
    G |-----2-------2---2--|
    D |---2---2-------2----|
    A |-0------------------|
    E |--------------------|
    
       A                     Bm
    En un día de esos en que suelo pensar
            F#m                   C#
    “hoy va ser el día menos pensado”
    
  •     LA
    e. -------------------------|>
    B. ---------2---------------|>
    G. -----2-------2-----------|>
    D. ---2---2-------2---------|> x3
    A. -0-----------------------|>
    E. -------------------------|>
    y Al final Hace esto
        LA
    e. -------------------------|>
    B. ---------0h2-------------|>
    G. -----2---------2---------|>
    D. ---2---2-----2---2-------|>
    A. -0-----------------------|>
    E. -------------------------|>
    
    Luego Empiesa Esta Estrofa,
    Todas Son Iguales,
    en algunas Cambia el final
    
    
  • 1er Verso
                       |_______12x______|                |_______7x_______|
    C |X---------------|----------------|X---------------|----------------|
    H |----x-x-x-x-x-x-|x-x-x-x-x-x-x-x-|----x-x-x-x-x-x-|x-x-x-x-x-x-x-x-|
    S |----o-------o---|----o-------o---|----o-------o---|----o-------o---|
    B |o-----o---o-----|o-----o---o-----|o-----o---o-----|o-----o---o-----|
       1 + 2 + 3 + 4 +  1 + 2 + 3 + 4 +  1 + 2 + 3 + 4 +  1 + 2 + 3 + 4 +
    
    Coro
                       |_______7x_______|                                 
    C |----------------|----------------|----------------|X---------------|
    H |--x---x---x-x---|x-x-x-x-x-x-x-x-|x-x-x-x-x-x-x-x-|--x-x-x-x-x-x-x-|
    S |------------o---|----o-------o---|----o-----------|----o-------o---|
    B |o---o---o-------|o-----o---o-----|o-------o---o---|o-----o---o-----|
       1 + 2 + 3 + 4 +  1 + 2 + 3 + 4 +  1 + 2 + 3 + 4 +  1 + 2 + 3 + 4 +  
    
      |_______6x_______|                                 |_______3x_______|
    C |----------------|-------------
  • +
    ¡Colabora con nosotros!
    Envíanos tu versión de esta canción
  • Tutorial
    HD
    Como tocar ROSAS de LA OREJA DE VAN GOGH en guitarra
    2:21
  • Tutorial
    Como tocar Rosas - La Oreja de Van Gogh - En Guitarra Acustica (HD)
    Tutorial COMPLETO
    6:59

Letra de Rosas
En un día de esos en que suelo pensar
“hoy va ser el día menos pensado”
nos hemos cruzado, has decidido mirar
a los ojitos azules que ahora van a tu lado.
Cesde el momento en el que te conocí
resumiendo con prisas, tiempo de silencio.
Te juro que a nadie le he vuelto a decir
que tenemos el récord del mundo en querernos
Por eso esperaba con la carita empapada
que llegaras con rosas con mil rosas para mi
por que ya sabes que me encantan esas cosas
que no importa si es muy tonto soy así.
Y aun me parece mentira que se escape mi vida
imaginando que vuelves a pasarte por aquí
donde los viernes cada tarde como siempre
la esperanza dice: quieta, hoy quizá sí
Escapando una noche de un bostezo de sol
me pediste que te diera un beso.
Con lo baratos que salen mi amor
¿que te cuesta callarme con uno de esos?
Pasaron seis meses y me dijiste adiós
un placer coincidir en esta vida
ahi me quedé, en una mano el corazón
y la otra excusas que ni tu entendías.
Por eso esperaba con la carita empapada
que llegaras con rosas con mil rosas para mi
por que ya sabes que me encantan esas cosas
que no importa si es muy tonto soy sí.
Y aun me parece mentira que se escape mi vida
imaginando que vuelves a pasarte por aquí
donde los viernes cada tarde como siempre
la esperanza dice: quieta, hoy quizá sí
Y es que empiezo a pensar
que el amor verdadero
es tan solo el primero
Y es que empiezo a sospechar
que los demás son solo para olvidar.
Por eso esperaba con la carita empapada
que llegaras con rosas con mil rosas para mi
por que ya sabes que me encantan esas cosas
que no importa si es muy tonto soy así.
Y aun me parece mentira que se escape mi vida
imaginando que vuelves a pasarte por aquí
donde los viernes cada tarde como siempre
la esperanza dice: quieta, hoy quizá sí
(o se puede sustituir por un D
Cualquier Duda o corrección:
tw @thevictorlennon
facebook.com/victormccaballero




[Rosas chords][Rosas cifra]
© LaCuerda.net · aviso legal · privacidad · es · en · pt · contacto