Tablatura para Guitarra de La Oreja de Van Gogh: La Playa
Conexión · Inscripción
Letras y Acordes
Pantalla Completa
Imprimir
Versión Texto
Añadir Favorito
Otras Versiones

Mostrar Diagramas
Desfile Automático
Manipular Acordes
Formato del Texto


La Playa(TAB)

La Oreja de Van Gogh

calidad:
odvg0115
AUTOR: Xabi San Martin
ALBUM: El Viaje de Copperpot
Enviado por FucoGz
E||--0-0-0---------0----|-0-7-5-4-2-|--------------0-0-------||
B||--------2-3-2-0------|-----------|----2-2-2-2-3-----3-----||
G||---------------------|-----------|------------------------||
D||---------------------|-----------|------------------------||
A||---------------------|-----------|------------------------||
E||---------------------|-----------|------------------------||
No se si aun me recuerdas            nos conocimos al tiempo.

E||--2-0-0-0-0-------|-----0-5-|------------0--0------||
B||------------2-----|-3-2-----|---3--2--0------------||
G||------------------|---------|----------------------||
D||------------------|---------|----------------------||
A||------------------|---------|----------------------||
E||------------------|---------|----------------------||
tu, el mar y el cielo           Quien me trajo a ti

E||--2-2-0-----1---------|------0--------0---0---1---||
B||--------2-2---2-0-----|--2-2----0-2-3---2---2-----||
G||-------------------2--|---------------------------||
D||----------------------|---------------------------||
A||----------------------|---------------------------||
E||----------------------|---------------------------||
Si pudiera volver a nacer te veria cada dia amanecer.

E||-----0--1--1--3--5-5--0--|-----0--0--------||
B||--3----------------------|--3-------0------||
G||-------------------------|-------------2---||
D||-------------------------|-----------------||
A||-------------------------|-----------------||
E||-------------------------|-----------------||
    Sonriendo como cada vez   como aquella vez

E||-----2-2-2-2-2-2-2-2-2-2--0------------------||
B||-----------------------------3--2------------||
G||--2--------------------------------2---------||
D||---------------------------------------------||
A||---------------------------------------------||
E||---------------------------------------------||
 Te voy a escribir la cancion mas bonita del mundo

E||---------------------2----------------------------||
B||---2--2--2--2--2--2-----2------2--2--0--2--0------||
G||----------------------------------------------2---||
D||--------------------------------------------------||
A||--------------------------------------------------||
E||--------------------------------------------------||
voy a capturar nuestra  historia tan solo un segundo

E||--------------0----------0-0-0--5-5-5-4------||
B||----3-3-3-3-3--------------------------------||
G||--2------------------------------------------||
D||---------------------------------------------||
A||---------------------------------------------||
E||---------------------------------------------||
un dia veras que este loco   de poco se olvida

E||--------------0---------------------------------||
B||----3-3-3-3-3----------------------0-2-2-0------||
G||--2--------------------------2-2-2--------------||
D||------------------------------------------------||
A||------------------------------------------------||
E||------------------------------------------------||
Por mucho que pasen los años   de largo en tu vida

Louro´02

Cualquier cosa a maremoto007@hotmail.com
Este fichero es trabajo propio de su transcriptor y representa su interpretación personal de la canción. El material contenido en esta página es
para exclusivo uso privado, por lo que se prohibe su reproducción o retransmisión, así como su uso para fines comerciales.

© LaCuerda.net · Aviso Legal · Privacidad