Acordes de Guitarra » O »La Oreja de Van Gogh » Adiós (Tab)

Adiós
La Oreja de Van Gogh

Letras, Notas, Punteos, Tablaturas y Acordes de Guitarra (Tabs & Chords)

  • Letra y Acordes
              F              Am
    Tengo que irme ya, abrázame.
              F             Am
    Nada más llegar te llamaré.
         Dm                    Am
    Déjame marchar, no llores más. 
         F           G7        Am
    Túmbate otra vez, te dormirás.
    
             F                     Am
    Te he dejado atrás y pienso en tí.
             F                    Am      
    Oigo 'adiós amor' caer sobre mí.
               Dm                         Am      
    Yo quiero irme de allí, no puedo escapar.
        Bb                   F  / A
    Necesito volverte a abrazar.
    
    
    
    
  • Tablatura
                 FA             LAm      FA                 LAm
    E------------1--------------0--------1------------------0--
    B------------1--------------1--------1------------------1--
    G------------2--------------2--------2------------------2--
    D------------3--------------2--------3------------------2--
    A------------3--------------0--------3------------------0--
    E----------------------------------------------------------
       Tengo que irme ya, Abrázame, Nada más llegar te llamaré,
    
            REm                  LAm       FA           SOL
    E-------5--------------------0---------1------------3------
    B-------6--------------------1---------1------------3------
    G-------7--------------------2---------2------------4------
    D-------7--------------------2---------3------------5------
    A-------5--------------------0---------3------------5------
    E----------------------------------------------------------
       Déjame marchar, no llores más, túmbate otra vez,
    
                 LAm          FA                       LAm
    E------------0---------------------------------------------
    
  • +
    ¡Colabora con nosotros!
    Envíanos tu versión de esta canción

Letra de Adiós
Tengo que irme ya, abrázame.
Nada más llegar te llamaré.
Déjame marchar, no llores más.
Túmbate otra vez, te dormirás.
Te he dejado atrás y pienso en tí.
Oigo 'adiós amor' caer sobre mí.
Yo quiero irme de allí, no puedo escapar.
Necesito volverte a abrazar.
Ven, cálmate, no llores más,
si cierras los ojos verás que sigo junto a tí,
que no me iré sin besar
una de esas lágrimas que van desde tu cara al mar,
la vida viene, va, y se va...
Salgo del portal, quiero morir.
Tú en la habitación, llorando por mí.
Tú me has hecho tan feliz que siempre estaré
a tu lado, cuidando de tí.
Ven, cálmate, no llores más,
si cierras los ojos verás que sigo junto a tí,
que no me iré sin besar
una de esas lágrimas que van desde tu cara al mar,
la vida viene, va, y se va...
Ven, cálmate no llores más,
si cierras los ojos verás que sigo aquí, junto a tí...
En las transcripciones que he hecho pongo las notas inglesas
porque estoy más familiarizado con ellas. Espero que no os
importe. Aunque casi todos sabréis las equivalentes españolas
os pongo una tablilla para facilitar al que no las conozca.

Videos de Adiós
[ver más videos]

[ver todas las canciones]


© LaCuerda.net · Aviso Legal · Privacidad