Acordes de Guitarra » O »Octavia » Ciclos (Tab)

Ciclos
Octavia

Letras, Notas, Punteos, Tablaturas y Acordes de Guitarra (Tabs & Chords)

  • Tablatura
        Em   B    D    A    D5   C5   B5   F    G
    e|--0----7----5----5---------------------------|
    G|--0----7----7----5---------------------------|
    B|--0----8----7----6----7----5----4----2----4--|
    D|--2----9----7----7----7----5----4----3----5--|
    A|--2----9----5----7----5----3----2----3----5--|
    E|--0----7---------5-------------------1----3--|
    
    
    INTRO:
    
        Em                    B           D            A
    e|-----0--------------0---7--x--7--|--5--5--5----------0-----0------|
    G|-----0--------------0---7--x--7--|--7--7--7------2-3---2-3---2----|
    B|-----0--------------0---8--x--8--|--7--7--7-----------------------|
    D|-----2--x--x--x--x--2---9--x--9--|--7--7--7-----------------------|
    A|-----2--x--x--x--x--2---9--x--9--|--5--5--5-----------------------|
    E|--0--0--0--0--0--0--0---7--x--7--|--------------------------------|
    
        Em                    B           D            A
    
  • +
    ¡Colabora con nosotros!
    Envíanos tu versión de esta canción

Letra de Ciclos
| | |
| | |
VERSO:
debilidad sensualidad en tus labios se destila la miel
complicidad casualidad en los míos he encontrado tu piel
| | |
oh encontrado
| | |
ummmmmm yeah
ingenuidad fragilidad todo hechizo se va a desvanecer
oscuridad fatalidad soy la herida y tú eres la sal
y en el horizonte
todo es circular
vuelvo a equivocarme......
.....una y otra vez
| | |
una y otra....
| | |
...vez
diversidad plasticidad soy el éter si tú eres el mar
oscuridad fatalidad yo la herida tú siempre la sal.
y en el horizonte
todo es circular
vuelvo a equivocarme......
.....una y otra vez
una y otra....
...vez una y otra....

| | |
...vez
| | |
| | |
debilidad, sensualidad, complicidad,casualidad,
| | |
ingenuidad, fragilidad una y otra....
| | |
...vez una y otra...vez una y otra....
| | |
...vez una y otra...vez
ESPERO QUE SEA DE TU AGRADO
CUALQUIR DUDA, CONCEJO O COMENTARIO
POR FAVOR ESCRIBIR A: omarmc4@hotmail.com



© LaCuerda.net · Aviso Legal · Privacidad
DINAMICO