Acordes de Guitarra » N »Los Nocheros » Rocío en Abril (Tab)

Rocío en Abril
Los Nocheros

Letras, Acordes y Tabs para Guitarra, Bajo y Ukulele

  • FA#m   MI     FA#m
    ESTE, MI DESTINO,
        MI     RE       SIm    DO#7
    TIENE UN ANGEL QUE JAMAS SOÑE
    FA#m  MI     FA#m
    VINO COMO LLEGAN
    MI    RE    SIm     DO#7
    ESAS AVES AL ATARDECER
    LA                MI
    ANTES EL OTOÑO ANDABA
                 FA#m              RE  MI
    COMO UN RECUERDO QUE EN MI LLO VI--A
    LA                      MI
    PERO EN LA ESTACION ESTABAS
              FA#m           RE     MI
    CON TU MIRADA PARA INVENTAR MI SOL.
    
    RE                              LA
    AGUA EN LA FLOR, ROCIO EN MI CORAZON
      TE VUELVES CANCION
    
  • FA#m         DO# (cej.1)
    ESTE, MI DESTINO,
              RE               DO# 
    TIENE UN ANGEL QUE JAMAS SOÑE
    FA#m        DO# (cej.1)
    VINO COMO LLEGAN
         RE            DO# 
    ESAS AVES AL ATARDECER
    
    LA                MI 
    ANTES EL OTOÑO ANDABA
                FA#m              RE   MI 
    COMO UN RECUERDO QUE EN MI LLOVIA
    LA                    MI 
    PERO EN LA ESTACION ESTABAS
             FA#m            RE       MI 
    CON TU MIRADA PARA INVENTAAAR MI SOL.
    
    RE                         LA 
    AGUA EN LA FLOR, ROCIO EN MI CORAZON
    
  • 1)--14-14-14-|-14-|-16-17|-16-14-12-|-9/12-12-12-12-|/
    2)--15-15-15-|-15-|-17-19|-17-15-14-|10/14-14-14-14-|/
    3)-----------|----|------|----------|---------------|/
    4)-----------|----|------|----------|---------------|/
    5)-----------|----|------|----------|---------------|/
    6)-----------|----|------|----------|---------------|/
    
    
    /---9-|------|------|-----|---------|---------|/
    /-----|---12-|---10-|---9-|---9--12-|-9/12-12-|/
    /-----|------|------|-----|---------|10/13-13-|/
    /-11--|-11---|-11---|-11--|-11------|---------|/
    /-----|------|------|-----|---------|---------|/
    /-----|------|------|-----|---------|---------|/
    
    
    /1)-/9-|-9-9-|-12-|-10-10-|-9--9--|-7-9--|/
    /2)-/9-|-9-9-|-14-|-12-12-|-10-10-|-9-10-|/
    /3)----|-----|----|-------|-------|------|/
    /4)----|-----|----|-------|-------|------|/
    /5)----|-----|----|-------|-------|------|/
    /6)----|-----|----|-------|-------|------|/
    
    
    /-------------------9-9-9-12-12-12-/14-|-14-12-12-10-10--|/
    /----------10-10-10--------------------|------
  • +
    ¡Colabora con nosotros!
    Envíanos tu versión de esta canción

Letra de Rocío en Abril
ESTE, MI DESTINO,
TIENE UN ANGEL QUE JAMAS SOÑE
VINO COMO LLEGAN
ESAS AVES AL ATARDECER
ANTES EL OTOÑO ANDABA
COMO UN RECUERDO QUE EN MI LLO VI--A
PERO EN LA ESTACION ESTABAS
CON TU MIRADA PARA INVENTAR MI SOL.
AGUA EN LA FLOR, ROCIO EN MI CORAZON
TE VUELVES CANCION
ANTES DE TI GANABA LA OSCURIDAD
LLENANDO MI VOZ.
COMO DECIRTE ABRIL
GRACIAS POR DESTERRAR
LA SOLEDAD QUE HUBO EN MI.
ESTE MUNDO TIENE UN DIA NUEVO
YO LO DESCUBRI
PORQUE JUSTO PUDE VER EL CIELO
DESDE QUE TE VI.
PUEDEN SEPULTAR TRISTEZAS
MIS ALEGRIAS PARA QUE CREZCAN
COMO EN UN TRIGAL ESPIGAS
LAS COSAS BELLAS QUE SOLO DA TU AMOR.
AGUA DE MAR AZUCARADA POR TI
TE VUELVES CANCION
QUIEN VA A SACIAR MIS ANSIAS MAS QUE TU AMOR
LLENANDO MI VOZ.
COMO DECIRTE ABRIL
GRACIAS POR DESTERRAR
LA SOLEDAD QUE HUBO EN MI.
-linda cancion, pero los tonos los saque q a mi forma-




[Rocío en Abril chords][Rocío en Abril cifra]
© LaCuerda.net · aviso legal · privacidad · es · en · pt · contacto
DINAMICO