Acordes de Guitarra » N »Los Nocheros » Pretenciosa (Tab)

Pretenciosa
Los Nocheros

Letras, Acordes y Tabs para Guitarra, Bajo y Ukulele

  • REm                    LA7
    Tan pretencioso es tu amor
                         REm  RE7
    que hasta la luna te di
      SOLm                 REm  DO SIb
    para alumbrarte esas noches
                      LA7
    que andar tras el canto
                 REm     RE7
    me alejan de tí.
       SOLm                  REm
    Para alumbrarte esas noches
       LA7
    que andar tras el canto
                 REm
    me alejan de tí.
    
    
    Si a caso digo que no
    a tus caprichos mujer   _
    
  • LA                      MI7
    Tan pretencioso es tu amor
                         LA  LA7 RE
    que hasta la luna te di
                         LA
    para alumbrarte esas noches
                      MI7
    que andar tras el canto
                 LA     LA7 RE
    me alejan de tí.
                         LA     SOL
    Para alumbrarte esas noches
          FA          MI7
    que andar tras el canto
                 LA
    me alejan de tí.
    
    
    Si a caso digo que no
    a tus caprichos mujer   _
    
  • E||---------------------------------------5-4-5---------------------|
    B||-------------------------------------6-------8-8-6-6/8-5-8-6-5-6-| 
    G||--2-3-2-1-2------------------------7-----------------------------|
    D||------------0,-0-2-3,-5-6-7,-6-7-8-------------------------------|
    A||-----------------------------------------------------------------|
    E||-----------------------------------------------------------------|
    
    
    
    E||------------------------------(12x6)-10-10-9-9-7-7-9-10----|
    B||-----------------------------------------------------------| 
    G||--2-3-2-1-2---2--------------------------------------------|
    D||------------0---2-3-5,5-6-7--------------------------------|
    A||-----------------------------------------------------------|
    E||-----------------------------------------------------------|
    
    
     REm                   MI7
    Tan pretencioso es tu amor
     LA7                REm  RE7
    
  • +
    ¡Colabora con nosotros!
    Envíanos tu versión de esta canción

Letra de Pretenciosa
Tan pretencioso es tu amor
que hasta la luna te di
para alumbrarte esas noches
que andar tras el canto
me alejan de tí.
Para alumbrarte esas noches
que andar tras el canto
me alejan de tí.
Si a caso digo que no
a tus caprichos mujer _
llorará mi alma de frío |
buscando el astío |- BIS
perdido en tu piel. _|
Pideme niña si quieres
las horas que duelen
de tanto esperar.
Yo he llenarlas con besos
pero no me pidas que no cante más.
Que de tu amor vivo preso
pero no me pidas que no cante más.
La copla trepa en mi voz
laten en tu atardecer _
y coplas llegan a zamba |
y tu pena avanza |- BIS
bendita mujer. _|
Si andan buscando que yo
muera de a poco por tí _
puedo cumplir tus antojos |
si yo por tus ojos | BIS
prefiero vivir. _|
Estribillo




[Pretenciosa chords][Pretenciosa cifra]
© LaCuerda.net · aviso legal · privacidad · es · en · pt · contacto
DINAMICO