Acordes de Guitarra » N »Los Nocheros » La Mitad (Tab)

La Mitad
Los Nocheros

Letras, Acordes y Tabs para Guitarra, Bajo y Ukulele

  •    G              C
    e|----------------------------|
    b|-------10-12-10----13-12-10-|
    g|-12-12----------12----------|
    D|----------------------------|
    A|----------------------------|
    E|----------------------------|
    
       D           G
    e|-10-10h12-10---|
    b|-------------12-|
    g|----------------|
    D|----------------|
    A|----------------|
    E|----------------|
    
    
       G              C
    e|----------------------------|
    b|-------10-12-10----13-12-10-|
    
  • +
    ¡Colabora con nosotros!
    Envíanos tu versión de esta canción

Letra de La Mitad
Lejos de tu querer
tengo que confesar
que yo soy apenas de lo que he sido la mitad
Vos me juraste ayer
que yo era tu verdad
y tu propia sombra para seguir tu caminar
Pobre mi corazón
no hace mas que penar
Cuando no estas conmigo suelo escucharlo a la mitad
Dime quien pierde mas de los dos
si vos te vas de mi corazón
Dime quien pierde mas de los dos
o por igual perdemos los dos
Debes saber mujer si te vas
a medias será si dejas mi amor
la otra mitad la tiene mi amor
e|-10-10h12-14-15--|
IGUAL A LA PRIMER PARTE.
Mi suerte sin tu amor
no suele ser igual
y de poquito a poco como el carbón se apagará
Pobre mi corazón
no hace mas que penar
Cuando no estas conmigo suelo escucharlo a la mitad
Dime quien pierde mas de los dos
si vos te vas de mi corazón
Dime quien pierde mas de los dos
o por igual perdemos los dos
Debes saber mujer si te vas
a medias será si dejas mi amor
la otra mitad la tiene mi amor
la otra mitad la tiene mi amor




[La Mitad chords][La Mitad cifra]
© LaCuerda.net · aviso legal · privacidad · es · en · pt · contacto
DINAMICO