Acordes de Guitarra » N »No Te Va Gustar » Autodestructivo (Tab)

Autodestructivo
No Te Va Gustar

Letras, Acordes y Tabs para Guitarra, Bajo y Ukulele

  • F - E - Am - Dm - D7 - G
    
    C       G       Am       E
    Hoy estoy un tanto destructivo,
    F             C             D7         G
    aunque soy feliz y por tus ojos me desvivo.
    C      G         Am              E
    Hoy estoy en el mismo punto que antes,
          F           C          D7          G
    pero tengo mil razones de mirar para adelante.
    
    C         G           Am          E
    Quiero saber si sigo más o tomo atajos,
    F         C               D7            G
    y no sé bien si a esta altura subo o bajo.
    
       C                      G
    No sé lo que digo, ni pienso lo que escribo,
        Am                 E
    es más, no quiero pensarlo,
    
  • Intro: F E Am(x2) D7 G
    
    
    C      G      Am              E
    Hoy estoy un tanto autodestructivo,
     F           C             D7          G
    aunque soy feliz y por tus ojos me desvivo.
    C      G        Am              E
    Hoy estoy en el mismo punto que antes,
         F            C
    pero tengo mil razones
         D7           G
    de mirar para adelante.
    
    C        G           Am           E
    Quiero saber si sigo más o tomo atajos,
    F       C
    y no se bien
              D7              G
    si a esta altura subo o bajo.
    
  • Intro: F E Am Am Dm D7 G*
    
    Solo
    e|------------------------------------------------------------------------
    B|-------------9b10-------------------------------------------------------
    G|----------10------9-7/9------7b9r7b9-5~--5/7~---------------------------
    D|-------10---------------10~--------------------7b9--9-7---(10 Opcional)-
    A|--8/10--------------------------------------------------10--------------
    E|------------------------------------------------------------------------
    
    *
    e|----------------------------------
    B|----------------------------------
    G|----------------------------------
    D|-----------3---2------------------
    A|-----2--5----------5---2-0----3---
    E|--3------------------------3------
    
    D7
    e|----x----
    
  • +
    ¡Colabora con nosotros!
    Envíanos tu versión de esta canción

Letra de Autodestructivo
Hoy estoy un tanto destructivo,
aunque soy feliz y por tus ojos me desvivo.
Hoy estoy en el mismo punto que antes,
pero tengo mil razones de mirar para adelante.
Quiero saber si sigo más o tomo atajos,
y no sé bien si a esta altura subo o bajo.
No sé lo que digo, ni pienso lo que escribo,
es más, no quiero pensarlo,
sé muy bien lo que busco y, tal vez
no quiero encontrarlo.
No te vayas, dejame llegar,
despedirme o sólo verte, no más.
A veces sueño que un río pasa a mi lado
y se lleva lejos lo que me había importado.
Levanto la vista y veo todo lo que viene,
que también, en parte es tuyo, y es lo que más me sostiene.
No te vayas, dejame llegar,
despedirme o sólo verte, no más.
Y sueño que el río me aleja de las cosas importantes,
pero sé que sin mirarte puedo verte en todas partes.
Y hoy estoy, hoy estoy un tanto autodestructivo,
aunque sé que soy feliz y por tus ojos, por tus ojos me desvivo.
Es que yo me desvivo.




[Autodestructivo chords][Autodestructivo cifra]
© LaCuerda.net · aviso legal · privacidad · es · en · pt · contacto