Acordes de Guitarra » N »Nicho Hinojosa » Paso la vida pensando (Tab)

Paso la vida pensando
Nicho Hinojosa

Letras, Acordes y Tabs para Guitarra, Bajo y Ukulele

  •     C9                     F9
    e---0--------0--------------3------|
    B-----1-3------1-3-------1--1------|
    G---------0--------0----2---2------|
    D----------------------3----3------|
    A---3--------3---------------------|
    E----------------------------------|
    
    Riff 2
       C9                 F5
    e---0--------0--------------0------|
    B-----1-3------1-3-------1--1------|
    G---------0--------0----2---2------|
    D----------------------3----3------|
    A---3--------3---------------------|
    E----------------------------------|
    
             C Cmaj7   Am        A5
    Yo te llevo, muy dentro de mí,
        D7sus4 Dm7    G
    
  • C                Am
    Yo te llevo, muy dentro de mí,
        Dm                G
    la locura, que viví por ti,
        C                Am
    aun se alberga en mi corazón,
        Dm                G
    te dejé partir, no me explico la razón, porque.
    
    CORO
        C
    Paso la vida pensando,
        Am               Dm
    Paso las noches soñando con tu amor,
        G
    Eiehhhh! porque, X2
        G                 C
    Con tu amor, con tu amor
    
        C                Am
    
  •         C
    yo te llevo
          Am
    muy dentro de mi
         Dm
    la locura
           G
    que vivi por ti
              C
    aun se alberga
           Am
    en mi corazon
          Dm
    te deje partir
             G
    no me explico la razon
    
    CORO:
    por que
     C
    
  •    C                     D7sus4/F
    1--0---------0------------------3---
    2----1-3-------1-3-----------1--1---
    3--------0---------0-------2----2---
    4------------------------3------3---
    5--3--------------------------------
    6-----------------------------------
    
       C                     Am6
    1--0---------0------------------0---
    2----1-3-------1-3-----------1--1---
    3--------0---------0-------2----2---
    4------------------------3------3---
    5--3--------------------------------
    6-----------------------------------
    
    
       C      Cmaj7     Am      A9        D7sus4    Dm7     G
    1-------------0-----------------0---------3-----1--1---------------------
    2-----1---0-------------1---0-------------------1----1------0----1---3---
    
  • +
    ¡Colabora con nosotros!
    Envíanos tu versión de esta canción

Letra de Paso la vida pensando
Riff 2
Yo te llevo, muy dentro de mí,
la locura, que viví por ti,
aun se alberga en mi corazón,
te dejé partir, no me explico la razón, porque.
Paso la vida pensando,
paso las noches soñando con tu amor,
eiehhhh! porque,
Paso la vida pensando,
paso las noches soñando con tu amor,
con tu amor, con tu amor
Fue mi orgullo, o mi estupidez,
que me entorpeció, no tuve sensatez.
Quizás no supe valorar tu amor,
aunque te ofendí, te suplico tu perdón, porque.
Vienen a mi mente tantas cosas,
que ni yo me puedo perdonar,
pero nunca, nunca te he dejado,
de amar.
Yo te llevo, muy dentro de mí,
y si tú me llevas, muy dentro de ti,
los dos sufrimos, igual decepción,
y el separarnos, fue una tonta decisión, porque...
FINAL
con tu amoooooooooooooooooor.
Riff 3




[Paso la vida pensando chords][Paso la vida pensando cifra]
© LaCuerda.net · aviso legal · privacidad · es · en · pt · contacto