Acordes de Guitarra » N »Nicho Hinojosa » Así son ellas (Tab)

Así son ellas
Nicho Hinojosa

Letras, Acordes y Tabs para Guitarra, Bajo y Ukulele

  • E----------10p11h10--------10---10-11-13--11p13h11--10---8-7-8-10-11--10p11h10-8---------------8--8p10h8---------------------15--------------
    B------------------------13--------------------------------------------------------11--10-11----------------11----------------------------8--
    G-----10----------------------------------------------------------------------------------------------------------12-------------------------
    D------------------------------------------------------------------------------------------------------------------------------------10------
    A--------------------------------------------------------------------------------------------------------------------------------------------
    E---------------------------------------------------------------------------------------------------------------------12---------------------
    
    E---------------------------------------------------------------------6p8h6--5--5-------5p6h5-------9/10-----
    B--------8p10-11-----8p10h8-----------8------------8---------------------------------8-----------7-----------
    G---------------------------------7-------------7------------------------------------------------------------
    D-------------------------------------------------------------------------------------------------0-0--------
    A------------------------------------------------------------------------------------------------------------
    E------------------------------------------------------------------------------------------------------------
    
    VERSO1
                    Gm7
    No hay que comprenderlas
                 Cm7
    solamente amarlas
           F                          F7
    
  • MIm
    No hay que comprenderlas,
    solamente amarlas,
        LA7                           RE
    las cosas mas bellas de esta creación
    RE7                SOL       SI7
    son las flores y ellas
    MIm
    No hay que comprenderlas
    pues son un dilema
       LA7                        RE
    de cada mirada de sus lindos ojos
    RE7          SOL        SI7
    nacen mil poemas
                   MIm                 LA7
    A veces son dulces, cariñosas y tiernas
               RE                 RE7
    a veces tan solo palabras obscenas
               SOL
    con duros reproches
    
  •  Gm7    Cm7   F7sus4   F7   Bbmaj7  D7sus4   D7   G7sus4   G7   Ebmaj7
    E - 3  E - 3  E - 1  E - 1  E - 1   E - 5  E - 5  E - 3  E - 3  E - 3 
    B - 3  B - 4  B - 1  B - 1  B - 3   B - 8  B - 7  B - 3  B - 3  B - 3
    G - 3  G - 3  G - 3  G - 2  G - 2   G - 5  G - 5  G - 5  G - 4  G - 3
    D - 3  D - 5  D - 1  D - 1  D - 3   D - 7  D - 7  D - 3  D - 3  D - 5
    A - 5  A - 3  A - 3  A - 3  A - 1   A - 5  A - 5  A - 5  A - 5  A - 6
    E - 3  E - 3  E - 1  E - 1  E - 1   E - 5  E - 5  E - 5  E - 3  E - 3
    
    INTRO
                Bb                   Am7              D7         Gm7               Cm7       D7
    e -----10-8-10--10-11-13-11-10-8-7-8-10-11-10-8----------8-10-------15---3-5-6--3-6-5--5-3-2--10--| 
    B ----------------------------------------------11-10-11------11----------------------------------|
    G --10-----------------------------------------------------------12-------------------------------|
    D ------------------------------------------------------------------------------------------------|
    A ------------------------------------------------------------------------------------------------|
    E ------------------------------------------------------------------------------------------------|
    
                      Gm7
    No hay que comprenderlas
             Cm7
    
  • +
    ¡Colabora con nosotros!
    Envíanos tu versión de esta canción

Letra de Así son ellas
VERSO1
No hay que comprenderlas
solamente amarlas
las cosas más bellas de esta creación
son las flores y ellas.
No hay que comprenderlas
pues son un dilema
de cada mirada de sus lindos ojos
nacen mil poemas.
CORO1
A veces son dulces, cariñosas y tiernas,
a veces tan sólo palabras obscenas,
con duros reproches, llenas de arrebatos
pero así son ellas;
mañanas azules y tardes doradas,
con sol y con lluvia, con risas y lágrimas,
llenas de contrastes, luceros fugaces
y a veces estrellas.
REQUINTO
VERSO2
Y es que así son ellas
ángeles del cielo
ternura y pasión, odio y amor,
seda y terciopelo.
CORO2
A veces son dulces, cariñosas y tiernas,
a veces tan sólo palabras obscenas,
con duros reproches, llenas de arrebatos
pero así son ellas;
mañanas azules y tardes doradas,
con sol y con lluvia, con risas y lágrimas,
llenas de contrastes, luceros fugaces
y a veces estrellaaaaaaaaaaaaaaas,
* (punteo y rasgueo rápido hacia abajo con D7 ) *(punteo) [rasgueo]
no hay que comprenderlas Cm7 D7

ACORDES: SIMBOLOGÍA:
EADGBE p: Pull-Off




[Así son ellas chords][Así son ellas cifra]
© LaCuerda.net · aviso legal · privacidad · es · en · pt · contacto
DINAMICO