Acordes de Guitarra » N »Nicho Hinojosa » Un buen perdedor (Tab)

Un buen perdedor
Nicho Hinojosa

Letras, Acordes y Tabs para Guitarra, Bajo y Ukulele

  • F#m                 Bm            E
      Sé que piensas marcharte ya lo sé
       A             D      B7             E  
      Y no te detendré,      haz lo que tu       quieras,
         F#m                  Bm          E
      Sin embargo recuerda que yo estaré aquí
                     A         D                      B7
      En el mismo lugar, y si solo tienes ganas de hablar
                   E
      Con gusto escucharé
    
          F#m            Bm
      Y si él supo darte más amor
       E           C#7
      Supo llenarte más que yo
       F#m             Bm    E                A  A?
      Claro que sé perder,   claro que sé perder.
    
    F#m            Bm         E
      No tienes porque disimular
    
  •     A            Dm
    e------------0----1-0-1-0-----|
    B---0h2-----------3------3----|
    G------2----2-----2-----------|
    D-------2--2------0-----------|
    A---0-------------------------|
    E-----------------------------|
    
    F#m                   Bm          E
      Sé que piensas marcharte ya lo sé,
       A     /G# F#m /E D             E       Riff 2
    y no te detendré, haz lo que, tú quieras.
          F#m                Bm
    Sin embargo recuerda que yo estaré
      E                A
    aquí en el mismo lugar,
          D                       D5               C#7  C#7sus  C#7
    y si sólo tienes ganas de hablar con gusto escucharé.
    
    PRE 1
    
  •     A              Dm
    E-----------------------------------
    A---0-------------------------------
    D---2----2--2-----------------------   se repite de nuevo
    G------2------2----2----------------
    B---2-----------2--3-----------3----
    E------------------1--0--1--0-------
    
    F#m                  Bm7           E
      Sé que piensas marcharte, ya lo sé,
       A     A/G#m   F#m  E
    y no te deten - dré    
      D              E    Esus4-E
    haz lo que tú quieras.
    
           F#m               Bm7
    Sin embargo recuerda que yo
              E                 A
    estaré aquí, en el mismo lugar
          D                       D9
    
  •   A               Dm           A              Dm
    e-------------------1-0-1-0----------------------1-0-1-0---
    B----2---------2---3--------3-----2---------2---3--------3-
    G---2--2-----2----2--------------2--2-----2----2-----------
    D--2-----2-2-----0--------------2-----2-2-----0------------  
    A-0----------------------------0---------------------------
    E----------------------------------------------------------
    
    F#m           Bm7            E
    e---------------------2-------------0---
    B-2---------2-------3---3---------0--0--
    G---2-------------2-------2-----1-----0-
    D-----4---4-----4-----------------------
    A-------------2-------------2-----------
    E-2-----2---------------------0---------
      Sé que piensas marcharte ya lo sé
    
       A  Amaj7   F#m     E       D         E
    e-----------------------------------2---------0-----0---------
    B-------------------2-------0---------------0-----------------
    
  •    A            Dm          A          Dm          F#m
    E --------------1--0-1-0---------------1--0-1-0----2--|
    B -2---------2--3--------3--2-------2--3--------3--2--|
    G ---2-----2----2-------------2---2----2-----------2--|
    D -----2-2------3---------------2------3-----------4--|
    A -0------------------------0----------------------4--|
    E -------------------------------------------------2--|
    
    F#m                Bm           E
    Sé que piensas marcharte ya lo sé
       A    A/G#  F#m  F#m/E                     
    y no te detendré,      
    D       B7         E   E4  E
    haz lo que tu quieras . . .
          F#m                Bm 
    sin embargo recuerda que yo 
            E               A
    estaré aquí en el mismo lugar
          D                     Bm
    y si solo tienes ganas de hablar
    
  • INTRO
    C            Fm                 C                               Am
    mi sol do mi lab sol lab sol fa mi sol do mi lab sol lab sol fa mi
    
    
    Am		         Dm       G
    Sé que pien-sas mar-char-te ya lo sé
    mi mi  mi   mi  mi  mi   fa re do re
    
        C		 F	                          
    y   no te de-ten-dré, 
    sol mi fa mi re  do
         
    D             G         
    haz lo que tu quie-ras . . .
    re  mi re  do si   sol
    
           Am                    Dm 
    sin em-bar-go re-cuer-da que yo
    la  si do  do do do   si do  la
     
    	  G		       C
    es-ta-réa quí en el mis-mo lu--gar
    mi re do  si  si si si  la sol sol
    
            F			   
    y   si  so-lo tie-nes ga-nas deha blar
    sol sol la la la  la  la sol la   fa  
    
            D	    E   D  E             
    con gus-toes cu-cha-ré . . .
    do  si  la   la si  si
    
       Am                 Dm        
    y  si él su-po dar-te más a--mo-or
    do re mi mi mi mi  do fa  mi do re
    
    G                E     
    su-po lle-nar-te más que yo . . .
    re re re  re  fa
  • +
    ¡Colabora con nosotros!
    Envíanos tu versión de esta canción

Letra de Un buen perdedor
Sé que piensas marcharte ya lo sé
Y no te detendré, haz lo que tu quieras,
Sin embargo recuerda que yo estaré aquí
En el mismo lugar, y si solo tienes ganas de hablar
Con gusto escucharé
Y si él supo darte más amor
Supo llenarte más que yo
Claro que sé perder, claro que sé perder.
No tienes porque disimular
Esas lágrimas están de más,
Si tienes que irte, Vete ya

Sin embargo esperaba que te quedaras,
Pero el agua hay que dejarla correr
Mientras yo me tragaba palabras
Que no pude decir
Y si el viento hoy sopla a tu favor
Yo no te guardaré renco-or, No
Claro que sé perder
No será la primera vez
Hoy te vas tu y mañana me ire-ee yo
Seré un buen perdedor,
El mundo no cambiará,
Alguien sin duda ocupa tu lugar.

Sin embargo esperaba que te quedaras,
Pero el agua hay que dejarla correr
Mientras yo me tragaba palabras
Que no supe decir
Y si el viento hoy sopla a tu favor
Yo no te guardaré renco-or, No
Claro que sé perder
No será la primera vez
Hoy te vas tu y mañana me ire-ee yo
Seré un buen perdedor,
El mundo no cambiará,
Alguien sin duda ocupa tu luga-aaa-aar.
Seré un buen perdedooooor




[Un buen perdedor chords][Un buen perdedor cifra]
© LaCuerda.net · aviso legal · privacidad · es · en · pt · contacto