Acordes de Guitarra » N »Nicho Hinojosa » A Quien (Tab)

A Quien
Nicho Hinojosa

Letras, Acordes y Tabs para Guitarra, Bajo y Ukulele

  • Intro A F#m B D E 
    
    A                G#m5        F#m
    A quien tratas de engañar amor porfavor
       D       C#m          Bm        E
    Ya se que este es el final muy bien
    A             G#m5           F#m
    A quien le importa a donde ir esta ves
        D          C#m        Bm        E
    Total aqui o alla sera igual el adios
    D
    el adios.. 
    A                    F#m          Bm7       D          E
    Perdoname si al escucharte dirijire a otra parte la mirada
    A                    F#m          Bm7            D             E
    Hablame sin tantas vueltas no utilizes nuestras fallas como escusas
    
    Coro 
    A                G#m5        F#m
    A quien crees tu que dolera este fin
    
  •   A                       C#m    F#m
    A quien tratas de engañar amor porfavor
       D       C#m         Bm        E
    Ya se que este es el final muy bien
      A                       C#m    F#m
    A quien le importa a donde ir esta ves
    D     C#m              Bm        E
    Total aqui o alla sera igual el adios
    D
    el adios..
         A               F#m      Bm7          D        E
    Perdoname si al escucharte dirijire a otra parte la mirada
       A                 F#m      Bm7               D           E
    Hablame sin tantas vueltas no utilizes nuestras fallas como escusas
    
    Coro
      A                     C#m      F#m
    A quien crees tu que dolera este fin
       D       C#m                 Bm            E
    A ti que alguien mas te espera ya despues de mi
    
  •    A   E/G#         F#m              F#m/E  D         E   Esus
    e--------------------------------------------2-2-0-----------------0|
    B--2---0------0------0-----0----0-------0-------3--3--------------0-|
    G--------1------1------2-----2----2----2----2-------2---1-1-1/2--1--|
    D----------2------2-----4-----4-----4-4---0-------------------------|
    A--0----------------------------------------------------------------|
    E------4----4--------2---2------2-----0----------------0--0--0------|
    
         A          E/G#       F#m       F#m/E
    A quién, tratas de engañar amor, por favor,
        D       D/C#        Bm        E
    ya sé, que este es el final, muy bien.
    
    A quién le importa a donde ir, esta vez,
    total, aquí o allá será igual, el adiós,
           D    D4
    el adiós.
    
            A5 A          F#m
    Perdóname, si al escucharte,
    
  • Intro A F#m  D E
    
    A                          F#m
    A quien tratas de engañar amor porfavor
       D                            E
    Ya se que este es el final muy bien
    A                           F#m
    A quien le importa a donde ir esta ves
        D                     E
    Total aqui o alla sera igual el adios
    D
    el adios..
    A                    F#m          Bm7       D          E
    Perdoname si al escucharte dirijire a otra parte la mirada
    A                    F#m          Bm7            D             E
    Hablame sin tantas vueltas no utilizes nuestras fallas como escusas
    
    Coro
    A                        F#m
    A quien crees tu que dolera este fin
    
  • E--------4---------2---------0----------------------------0-------------------
    A--0--------------------------------------------------------------------------
    D---------2---2-----2---2-----2-----0-----------------------------------------
    G--2-------2-2-------2-2-------1-----2-------------2---2-----0-2--------------
    B--2--------2---------2--------0------3-----3-----3-3-3----------2------------
    e---------------------------------------2-2---2_0----0-----------0------------
    
    
       ¿A quien tratas de engañas amor?, por favor... 
    E-------------------4-----------2---------0-----------------------------------
    A------0------------------------------------2---------------------------------
    D--------2------------2-----------2-------------------------------------------
    G---------2---2---------2---2-------2---2--------1----------------------------
    B-----------2-------------2-----------2--------0------------------------------
    e-----------------------------------------------------------------------------
    
      ya sé que este es el final... muy bien,
    E-----------------------------------0------------------------------------------
    A----------------------2-------------------------------------------------------
    D----0-------4-----------------------------------------------------------------
    
  • +
    ¡Colabora con nosotros!
    Envíanos tu versión de esta canción

Letra de A Quien
A quien tratas de engañar amor porfavor
Ya se que este es el final muy bien
A quien le importa a donde ir esta ves
Total aqui o alla sera igual el adios
el adios..
Perdoname si al escucharte dirijire a otra parte la mirada
Hablame sin tantas vueltas no utilizes nuestras fallas como escusas
A quien crees tu que dolera este fin
A ti que alguien mas te espera ya despues de mi
A quien le contaras que yo llore
Por ti que ahora solo quieres mi amistad
Perdoname es tan dificil no me pidas que te entienda no no puedo
Disculpame pero es tan facil perderlo todo cuando la vida apenas empieza
A quien crees tu que dolera este fin
A ti que alguien mas te espera ya despues de mi
A quien le contaras que yo llore
Por ti que ahora solo quieres mi amistad




[A Quien chords][A Quien cifra]
© LaCuerda.net · aviso legal · privacidad · es · en · pt · contacto