Acordes de Guitarra » N »Nicho Hinojosa » En el ultimo trago (Tab)

En el ultimo trago
Nicho Hinojosa

Letras, Acordes y Tabs para Guitarra, Bajo y Ukulele

  •     D   Cdim D#dim Em             A7                D
    e--2--------2/5-------------0--------------------------2h3-2--
    B--3-3-----1---4----------3--3-0--2--3--4--5--3--2-----3------
    G--2--2---2----------------0--0---0--0--0--0--0--0----2-------
    D--0-----1------------2/4----------------------------0--------
    A--------------------2------------0--2--3--4--2--0------------
    E------------------0------------------------------------------
    
    
            D     Cdim     Em9
    Tómate esta botella conmigo,                     +   x2x03x
            A7      +    ++    D5  D                 ++  x4x05x
    y en el último trago nos vamos,
            D        Cdim      Em   Riff 2
    quiero ver a que sabe tu olvido,
         A7           +    ++  D    A7/F#           A7/F#    X02022
    sin poner en mis ojos tus manos.
    
          D        Cdim    Em/F#                    Em/F#    022002
    Esta noche no voy a rogarte,
    
  • D     : 000232
    D#dim : 004545
    Em    : 022000
    Em/D  : 020000
    A     : 002220
    A7    : 002020
    G     : 320033
    G/F#  : 200033
     
    <>
      \ D  /         \D#dim/      \ Em /           \ A7 /
    1º||||||        4º||1|2|    1º||||||         2º||1|2|
      |||1|2          |||3|4      |23|||           ||1|2|
      ||||3|          ||||||      ||||||           ||1|2|
                                                   ||1|2|
    E----------------------------0----------------------------------]
    A---------------------------------------------------------------]
    D---0-------------4-----------------2/4---------2/3/4/5-/-3/2---]
    G----2-------2------5-----------0-------------------------------]
    B-----3----3---------4---0--------0------0------2/3/4/5-/-3/2---]
    
  • +
    ¡Colabora con nosotros!
    Envíanos tu versión de esta canción

Letra de En el ultimo trago
Tómate esta botella conmigo, + x2x03x
y en el último trago nos vamos,
quiero ver a que sabe tu olvido,
sin poner en mis ojos tus manos.
Esta noche no voy a rogarte,
esta noche te vas de de veras,
que difícil tener que dejarte,
sin pensar que tú ya no me quieras.
Nada me han enseñado los años,
siempre caigo en los mismos errores,
otra vez a brindar con extraños,
y a llorar por los mismos dolores.
(Bajeos sencillos)
Tómate esta botella conmigo,
y en el ultimo trago me besas,
esperamos que no haya testigos,
por si acaso te diera vergüenza.
Si algún día sin querer tropezamos,
no te agaches ni me hables de frente,
simplemente la mano nos damos,
y después que murmure la gente.
Tómate esta botella conmigo,
y en el ultimo trago nos vamos.
Riff 2
Riff 3




[En el ultimo trago chords][En el ultimo trago cifra]
© LaCuerda.net · aviso legal · privacidad · es · en · pt · contacto
DINAMICO