Acordes de Guitarra » N »Nicho Hinojosa » ¿donde estás corazón? (Tab)

¿donde estás corazón?
Nicho Hinojosa

Letras, Acordes y Tabs para Guitarra, Bajo y Ukulele

  •  A2     Dm2   Amaj7   A/F#   D/F#
    E - 0  E - 0  E - 0  E - 0  E - 2 
    B - 0  B - 3  B - 2  B - 0  B - 3 
    G - 2  G - 2  G - 1  G - 2  G - 2
    D - 2  D - 3  D - 2  D - 2  D - 0 
    A - 0  A - 2  A - 0  A - 0  A - X
    E - 0  E - X  E - 0  E - 2  E - 2
    
    INTRO
       A                     A/F#                     E7             A2
    e -------------------------------------------------------------0--
    B ----0--0--------0--0--------0--0--------0--0-----3--2--------0-- 
    G ----2--2--2-----2--2--2-----2--2--2-----2--2-----1-----2-----2-- 
    D -------------2-----------2-----------2--------2--2--------4--2-- 
    A -0-----------0-----------------------------------2-----------0--
    E -------------------------2-----------2--------------------------
    
                    A2                  A2
    e ---------0--------0--------0--------0--|
    B ------0-----0-----0-----0-----0-----0--|
    
  • +
    ¡Colabora con nosotros!
    Envíanos tu versión de esta canción

Letra de ¿donde estás corazón?
Yo le quería con toda el alma
como se quiere sólo una vez
pero el destino cambió mi suerte
quiso dejarme sin su querer.
Una mañana de frío invierno
sin darme cuenta se echó a volar
y desde entonces aún le espero
no me resigno a la soledad.
¿Dónde estás, corazón? no oígo tu palpitar
es tan grande el dolor, que no puedo llorar,
no quisiera lloraaaar y no tengo más llanto
le quería yo tanto y se fue para nunca volver.
Yo le quería con toda el alma
como se quiere sólo una vez
pero el destino cambió mi suerte
quiso dejarme sin su querer.
Tan sólo el tiempo borrar podría
aquellos años de tanto amor
y una mañana de frío invierno
la luz del alba se obscureció.
¿Dónde estás, corazón? no oígo tu palpitar
es tan grande el dolor, que no puedo llorar,
no quisiera lloraaaar y no tengo más llanto
le quería yo tanto y se fue para nunca volver,
le quería yo tanto y se fue para nunca volver.
Pa pa papa, pa pa papa, pa pa pa pa, pa pa papapa pa papaaa




[¿donde estás corazón? chords][¿donde estás corazón? cifra]
© LaCuerda.net · aviso legal · privacidad · es · en · pt · contacto
DINAMICO