Acordes de Guitarra » M »Música de VideoJuegos » Zelda - kakariko village (Tab)

Zelda - kakariko village
Música de VideoJuegos

  • Tablatura
    Ok. Estaba buscando esta tablatura pero no la encontre
    para guitarra, asi que decidi sacarla.. , esta muy facil , aqui les va.
    
    
    
    
    PARTE 1:
    e|-------0-----|-------------|-------3-----|-------1-----|
    B|-----1---1---|-------1-----|-----1---1---|-----3---3---|
    G|---0-------0-|-----2---2---|---2-------2-|---0-------0-|
    D|-------------|---2-------2-|-0-----------|-------------|
    A|-3-----------|-0-----------|-------------|-------------|
    E|-------------|-------------|-------------|-3-----------|
    
    PARTE 2:
    e|-------------|-------------|-------------|-------------|
    B|-----1---1---|-----0---0---|------1---1--|-----2---2---|
    G|-------2---2-|-------0---0-|---0---0---0-|---2---2---2-|
    D|-------------|-------------|-------------|-------------|
    A|---0---------|---2---------|-3-----------|-0-----------|
    E|-1-----------|-3-----------|-------------|-------------|
    
    PARTE 3:
    e|-------------|-------------|-------------|-------------|
    B|-----1---1---|-----0---0---|-----1---1---|-----1---1---|
    G|---2---2---2
  • Armónica
    Kakariko Village
    
    Esta cancion es la cancion completa, no falto ninguna parte
    ademas que suena identica
    
    En "C"
    
    3 4... 3 5... 4 6...
    
    3 4... 3 5... 4 6...
    
    
    6(6)(3)(6)65
    5.....5.....
    (4)4...
    
                  Dos veces
    
    
    44(3)(4)43
    4(3)4(4)3
    
    44(3)(4)43
    6(5)5(4)4
  • +
    ¡Colabora con nosotros!
    Envíanos tu versión de esta canción





© LaCuerda.net · aviso legal · privacidad · contacto