Acordes de Guitarra » M »Música de VideoJuegos » Zelda 2 intro (Tab)

Zelda 2 intro
Música de VideoJuegos

Letras, Acordes y Tabs para Guitarra, Bajo y Ukulele

  • Zelda 2
    E -8-7-----8-7-----|
    B -----8-------8---|
    G -------7-------7-|
    D -----------------|
    A -----------------|
    E -----------------| x4
    
    E -------------------3-1-1-------------|
    B -3-0-3-1---------3-------4---4-3-----|
    G ---------3-0-3-2-----------3-----2---|
    D -----------------------------------4-|
    A -------------------------------------|
    E -------------------------------------| x2
    
    E -15-15-15-15-16-16-16-16-17-17-17-17-18-20-|
    B -------------------------------------------|
    G -------------------------------------------|
    D -------------------------------------------|
    A -------------------------------------------|
    E -------------------------------------------|
    
    E -----------------------------|
    B -1-0-------------------------|
    G -----0-----------------------|
    D -------0-----0-3-2-0---0-----|
    A ---------2-3---------3---3-2-|
    E -----------------------------| x2
    
    E ---------------------------------|
    B -------------3-------------1-----|
    G -----0-3-2-------2-----0-3---3-2-|
    D -1-3-------4--
  • +
    ¡Colabora con nosotros!
    Envíanos tu versión de esta canción






[Zelda 2 intro chords][Zelda 2 intro cifra]
© LaCuerda.net · aviso legal · privacidad · es · en · pt · contacto
DINAMICO