Acordes de Guitarra » M »La Mosca Tse-Tse » Para no verte más (Tab)

Para no verte más
La Mosca Tse-Tse

Letras, Acordes y Tabs para Guitarra, Bajo y Ukulele

  • C, Em, Dm, G      
    y todo el tiempo, la misma vuelta 
    
    Cuando no tengas donde ir
    Cuando te sangre la nariz
    Cuando te duela la cabeza
    Y se termine esa cerveza.
    Cuando las alas de tu avión
    Se derritan sin razón
    Y el cáncer de la soledad
    Te haya matado en la ciudad. 
      
     Yo romperé tus fotos
    Yo quemaré tus cartas
    Para no verte más
    Para no verte más
      
     Yo romperé tus fotos... 
      
     Y si lográs sobrevivir
    
  • C-Em-Dm-G-G-F-Em-Dm-G
    
    
    
    
     C
    Cuando no tengas donde ir
           Em
    cuando te sangre la nariz
              Dm
    cuando te duela la cabeza
               G     F-Em-Dm
    y se termine esa cerveza
     
     C
    Cuando las alas de tu avión
             Em         Em - D#m - Dm
    se derritan sin razón
          Dm
    y el cáncer de la soledad 
    
  • C-Em-F-G (Punteado)G-F-C-G7-C
    
              C
    Cuando no tengas donde ir
              Em
    cuando te sangre la nariz
               F
    cuando te duela la cabeza
             G
    y se termine esa cerveza.
               C
    Cuando las alas de tu avion
           Em
    se derritan sin razon
               F
    y el cancer de la soledad
                G
    ya se ha matado en la ciudad
    
    Coro:
    
  •      C             Em         Dm
    e|---------------------------------------|
    B|----8---8-10-8---8--8-10-8--6--6-8-6---|
    G|--9---9--------9---9------9--7-------7-|
    D|---------------------------------------|
    A|-----------------7----------5----------|
    D|----8----------------------------------|
        G
    e|--------------------------|
    B|-----8-----6-----5-----3--|
    G|--------------------------|
    D|--------------------------|
    A|--------------------------|
    D|--8-----6-----5-----3-----|
         C            Em          Dm
    e|----------------------------------------|
    B|----8---8-10-8---8--8-10-8--6---6-8-6---|
    G|----9-9--------9-9-9------9-7-7-------7-|
    D|----------------------------------------|
    A|-----------------7----------5-----------|
    
  •        C                      Em                       Dm
    e|-----------------------------------|-------------------------|
    B|-----8~~~~~-----8--10--8-----8-~~~~|----8--10--8------8~~~~~-|
    G|--9----------9------------9--------|-9-------------9---------|
    D|-----------------------------------|-------------------------|
    A|-----------------------------------|-------------------------|
    
                         G  F  Em Dm
    e|----------------------------------|
    B|------8--10--8-----8--------------|
    G|---9------------9-----10--9--7----|
    D|----------------------------------|
    A|----------------------------------|
    E|----------------------------------|
    
           C                      Em                       F
    e|-----------------------------------|-------------------------|
    B|-----8~~~~~-----8--10--8-----8-~~~~|----8--10--8-------------|
    G|--9----------9------------9--------|-9-------------9--10~~~--|
    D|-----------------------------------|-------------------------|
    
  • INTRO
        C               Em               Dm               G
    G-|---------------------------------------------------------------|
    D-|-----------------2-2-----2-2------0-0-----0-0------5--3--2-----|
    A-|-3-3-----3-3---------2-2-----2-2------0-0-----0-0-----------5--|
    E-|-----3-3-----3-3-----------------------------------------------|
    
       C               Em               Dm                 G
    G-|--------------------------------------------------------|
    D-|-----------------2-2-----2-2------0-0-----0-0-------5---|
    A-|-3-3-----3-3---------2-2-----2-2------0-0-----0-0-------|
    E-|-----3-3-----3-3----------------------------------------|
    
    
    VERSO
    
       C               Em               Dm               G
    G-|---------------------------------------------------------------------|
    D-|-----------------2-2-----2-2------0-0-----0-0------5-5--3-3--2-2-----|
    A-|-3-3-----3-3---------2-2-----2-2------0-0-----0-0----------------5-5-|
    E-|-----3-3-----3-3---------------------------------------
  • ESPERO ME ENTIENDAN ESTO: LAS NOTAS QUE LES VOY A DAR 
    SON CON LAS QUE SE PUEDE TOCAR LA CANCION EN EL PIANO.
    
    
    NOTAS
    
    INTRO: TROMPETAS,SAXO,TROMBON.
    LA INTRO ES ASI:
    
       DO                   Em
    MI-SOL-MI-SOL-LA-SOL-MI-SOL
    
                     Dm
    MI-SOL-LA-SOL-MI-FA
    
                   SOL
    RE-MI-FA-MI-RE-SOL-FA-MI-RE
    
    DO                   Em
    SOL-MI-SOL-LA-SOL-MI-SOL
    
                     Dm
    MI-SOL-LA-SOL-MI-FA
    
                   SOL
    RE-MI-FA-MI-RE-SOL
    
    LAS ESTROFAS VAN ASI:
    
    CUANDO NO TENGAS DONDE IR:
              DO
    SOL-MI-MI-MI-RE-RE-DO-DO
    
    CUANDO TE SANGRE LA NARIZ:
              Em
    SOL-MI-MI-MI-RE-RE-DO-DO-SI
    
    CUANDO TE DUELA LA CABEZA:
             Dm
    SI-SI-SI-LA-SI-DO-RE-MI-SOL*--este SOL es de mayor tono.
    
    Y SE TERMINE ESA CERVEZA:
                SOL
    SOL-SOL-SOL-MI-RE-MI-RE-MI-RE.
    
    LAS DEMAS PARTES DE LAS ESTROFAS VAN IGUAL A ESTA.
    
    
    CORO:
       DO  
    MI-MI-RE-RE-DO-DO-RE
       Em
    MI-MI-RE-RE-DO-DO-SI
             Dm
    SI-SI-SI-LA-SI-DO
            SOL
    MI-MI-MI-MI-RE-
  • +
    ¡Colabora con nosotros!
    Envíanos tu versión de esta canción

Letra de Para no verte más
y todo el tiempo, la misma vuelta
Cuando no tengas donde ir
Cuando te sangre la nariz
Cuando te duela la cabeza
Y se termine esa cerveza.
Cuando las alas de tu avión
Se derritan sin razón
Y el cáncer de la soledad
Te haya matado en la ciudad.

Yo romperé tus fotos
Yo quemaré tus cartas
Para no verte más
Para no verte más

Yo romperé tus fotos...

Y si lográs sobrevivir
Al refusilo de maldad
Preguntarás en dónde estás
Preguntarás qué te pasó.
Me voy a poner a fumar
Sin preocuparme en nada más
Total ya es tarde pa' volver
Total ya es tarde pa' soñar.

Yo romperé tus fotos...
Yo romperé tus fotos...




[Para no verte más chords][Para no verte más cifra]
© LaCuerda.net · aviso legal · privacidad · es · en · pt · contacto