Acordes de Guitarra » M »Mon Laferte » Funeral (Tab)

Funeral
Mon Laferte

Letras, Acordes y Tabs para Guitarra, Bajo y Ukulele

  • e|-2----2-4-6/9----9---7--6h7p6--4-----6---6--------------------6---6-|
    B|-----2----------6-------------------4--4-----4h6p4--3-4------6--4---|
    G|----3----------6-------------------4------------------------4-------|
    D|--------------------------------------------------------------------|
    A|-----------------------------------------------------------4--------|
    E|---2----------6-------------------4---------------------------------|
          F#        A#m                   G#m6                     C#13
    
    e|-----6------9-7-6-7-6-----6-----------------------------------|
    B|-9p7----9p7-----------9-7---9-7-6-9-7-6---7-6-----6-7--6h7p6--|
    G|----------------------------------------8-----8-6-------------|
    D|--------------------------------------------------------------|
    A|--------------------------------------------------------------|
    E|--------------------------------------------------------------|
           F#     G#m7            A#m7                  Am7
    
    
    e|-9-8-7-------6-----6-|
    B|-----------6---6-9---|
    G|-------8-9-----------|
    
  • +
    ¡Colabora con nosotros!
    Envíanos tu versión de esta canción
  • Tutorial
    HD
    El Funeral - MON LAFERTE (Tutorial Cover)
    4:19

Letra de Funeral
[Verso 1]
Me levanto y te observo en la cama,
estás aún dormido
Y me tomo la pastilla y no recuerdo cuando fue
la última vez que lo hicimos
Al principio fuimos una gran locura
y ahora estamos tan aburridos
Nada es para siempre, amor,
vamos a escuchar al corazón
[Estribillo]
Mientras preparo el desayuno me siento
terriblemente sola
De pronto siento ganas de morir,
quiero escaparme de ti
Quisiera estar en el mar, que me lleven las olas,
quiero dejar de respirar
No me despiertes, quiero soñar con nuestro funeral
[Verso 2]
Todo esto navega en mi cabeza mientras
lavas los platos
Luego te sientas en la mesa, hablamos del futuro de nosotros,
de nuestros gatos
Me pregunto en que momento permitimos
nos ganara la costumbre
Quisiera retroceder el tiempo,
cambiar nuestras actitudes y que esta vez el amor nos dure
[Estribillo]
Mientras preparo el desayuno me siento
terriblemente sola
De pronto siento ganas de morir,
quiero escaparme de ti
Quisiera estar en el mar, que me lleven las olas,
quiero dejar de respirar
No me despiertes, quiero soñar con nuestro funeral
[Parte instrumental]
[Outro]
(Sola) oh, me siento (sola) sola
Perdóname, mi amor, por haberte fallado
Me siento sola y prefiero nuestro funeral
************************************
| h Hammer-on
| p Pull-off
| / Slide up
************************************




[Funeral chords][Funeral cifra]
© LaCuerda.net · aviso legal · privacidad · es · en · pt · contacto