Acordes de Guitarra » M »Mon Laferte » Mi buen amor (Tab)

Mi buen amor
Mon Laferte

Letras, Acordes y Tabs para Guitarra, Bajo y Ukulele

  •          SOL
    Mi buen amor
                            LAm
    Pues la verdad no hay otra cosa
                   SI7
    Que yo pueda hacer
                           MIm
    Tu no cambiaras, no me vas a convencer
    LAm
    De que ahora si
                    RE - RE7
    Todo va a estar bien
    
    
             SOL - LAm
    Hasta cuando
                SOL - SI7
    Seguirás pensando
                         MIm
    Que puedes jugar a pedir Sin nada dar
    
  •           G
    Mi buen amor
                                Am
    Pues la verdad no hay otra cosa
                        B7
    Que yo pueda hacer
                             Em
    Tu no cambiaras, no me vas a convencer
          Am
    De que ahora si
                     D7
    Todo va a estar bien
    
    
             G     Am
    Hasta cuando
                  G
    Seguirás pensando
    B7                   Em
    Que puedes jugar a pedir
    
  • e|-3---3---------3----0-------------0---0-|
    B|-3------3------3----1---------4---0---1-|
    G|-4---------4---4----2---2--3--4---0---2-|
    D|-5-------------5----2---------4---2---2-|
    A|-5-------------3----0-------------2---0-|
    E|-3-------------3------------------0-----|
    
    e|-10-------10-------10-------10----------10--|
    B|----10-------10-------10-------10-------10--|
    G|-------11-------11-------11-------11----11--|
    D|--------------------------------------------|
    A|--------------------------------------------|
    E|--------------------------------------------|
    
    Mi Buen Amor
    Pues la verdad no hay otra cosa
    Que yo pueda hacer
    Tu no cambiaras no me vas a convencer
    
    De que ahora si
    
  •              1.|--10-8--7--3---|
                 2.|--12-10-8--3---|
                 3.|-----------4---|
    
    Pues la verdad no hay otra cosa que yo pueda hacer
    (Palm mute/ mutear)
    1.|---------3-------------------------------------|
    2.|-------3---3-----------------------------------|
    3.|-----4-------4---------------------------------|
    4.|--5------------5----5--6--7------3--2----------|
    
                Tu no cambiaras, no me vas a convencer
    1.|-----------7----------------------------------------------------|
    2.|-----------7-------------------------------------10-10-9----9---|
    3.|-----------8---------------------------------------------11-----|
    4.|--7--8--9--7----------------------------------------------------|
    5-|-----------9----------------------------------------------------|
    6-|-----------7----------------------------------------------------|
    
    De que ahora sí
    
  • +
    ¡Colabora con nosotros!
    Envíanos tu versión de esta canción

Letra de Mi buen amor
Mi buen amor
Pues la verdad no hay otra cosa
Que yo pueda hacer
Tu no cambiaras, no me vas a convencer
De que ahora si
Todo va a estar bien
Hasta cuando
Seguirás pensando
Que puedes jugar a pedir Sin nada dar
Pues ahora
No estaré esperando
Mi buen amor
Si no quieres regresar
Por qué vuelves a buscarme una vez más?
No me pidas que te de una última noche
Mi buen amor
Parece fácil para ti
Alejarte para luego exigir que te quiera
Como si nada, nada, nada yo sintiera
Después de todo lo que tuve que pasar
Las terapias, los amores de mentira
Más mentiras
Y ahora quieres que sea tu amiga
Pues amigo, dime como borro
Esto que siento
Si no quieres regresar
Por qué vuelves a buscarme una vez más?
No me pidas que te de una última noche
Parece fácil para ti
Alejarte para luego exigir que te quiera
Como si nada, nada, nada yo sintiera




[Mi buen amor chords][Mi buen amor cifra]
© LaCuerda.net · aviso legal · privacidad · es · en · pt · contacto