Acordes de Guitarra » M »Memphis La Blusera » La Bifurcada (Tab)

La Bifurcada
Memphis La Blusera

Letras, Acordes y Tabs para Guitarra, Bajo y Ukulele

  • INTRO:  Am  Am/G  F7  E7  x3  Am  G  F#  F  E  Am
    
    Am  Am/G  F7  E7
    SI   te   vas,   
    Am  Am/G  F7  E7
    no, no, no me voy a matar. 
    Am  Am/G  F7  E7  
    Sabes, mejor, 
    Am               Am/G  F7       E7
    llevate si queres el televisor.
                            D
    Mientras haces la valija, 
                                       E
    escucha esta canción. 
    
    Am  Am/G  F7  E7  x3
    
    Si te vas, no, no, no, no voy a llorar. 
    Sabes, mejor, no queda otra que la separacion. 
    Si te llevas la cama chuchi, dejame el colchon.
    
  • LAm7 DO   FA   MI7
    SI     te vas,
    LAm7    DO    FA    MI7
    no, no, no me voy a matar.
    LAm7 DO  FA  MI7
    Sabes, mejor,
    LAm7          DO       FA       MI7
    llevate si queres el televisor.
               REm           MI7
    Mientras haces la valija,
                    LAm7
    escucha esta canción.
    
    
    Si te vas, no, no, no, no voy a llorar.
    Sabes, mejor, yodesconocía tu inclinación.
    Si te llevas la cama chuchi, dejame el colchon.
    
    LAm7                                 MI7
    Te vas con tu amiga, feminista perdida,
    
  • Intro (LAm7 DO) (FA MI7)
    1|------------------------------|---------------------|
    2|------------------------------|---------------------|
    3|---9---8--5h7--5-7-8p7-5------|---9---8---5~--------|
    4|-7---7---7----------------7-5-|-7---7---7----7-5-7~-|
    5|------------------------------|---------------------|
    6|------------------------------|---------------------|
    
                                    (Turnaround)
    1|------------------------------|--------------------------|
    2|------------------------------|--------------------------|
    3|---9---8--5h7--5-7-8p7-5------|--------------------------|
    4|-7---7---7----------------7-5-|-/7-7-5-5-4-4-3-3-2-5-6-7-|
    5|------------------------------|--------------------------|
    6|------------------------------|--------------------------|
    
    
    Sobre (Lam7 Do) (Fa Mi7)
    
    SI te vas,
    
  • e----------------------------
    b----------------------------
    g---9---8---7-5-7-7/8-5------
    d-7---7---7-------------7----
    a----------------------------
    E----------------------------
    
    e--------------------
    b--------------------
    g---9---8---5--------
    d-7---7---7---7-5-7--
    a--------------------
    E--------------------
    
    e----------------------------
    b----------------------------
    g---9---8---7-5-7-7/8-5------
    d-7---7---7-------------7----
    a----------------------------
    E----------------------------
    
    e------------------------
    b------------------------
    g------------------------
    d-7-7-5-5-4-4-3-3-2-5-6-7-
    a-------------------------
    E------------------------
  • INTRO Y MAYOR PARTE DEL TEMA IMPROVISA
    UNA BANDA EL PIBE EN LA VERSION EN VIVO
    
    INTRO
    
    e/-5----5--8-------8-7---/
    a/-----------8-7-7-------/
    d/-----------------------/
    g/-----------------------/
    
    esa es la subida que hace el bajo
    
    e/-55-33-22-11-3-5-/
    a/-----------------/
    d/-----------------/
    g/-----------------/
    
    hay una parte que queda el bajo con la bata tocando b
    
    e/-----------/
    a/-2-2-2-2-2-/
    d/-----------/
    g/-----------/
    
    
    puente
    
    e/--------------------/
    a/--5--7--dejar sonar-/
    d/--------------------/
    g/--------------------/
    
    en otra parte del tema toca lo mismo nomas que lo repite
    
    e---------------------/
    a-5--5--5---7---7---7-/
    d---------------------/
    g---------------------/
    
    estrbillo
    
    e-------------/
    a----------5--/
    d-------7-----/
    g-7-7-5-------/
    
    
    e-----------/     e-----------/
    a---------7-/  o  a-------9-7-/
    d-------9---/     d-9-9-7-----/
    g-9-9-7-----/     g-----------/
    
    es asi no se cual suena mejor
    
    despues va la subida
    
    e--------------------------/
    a------------------
  • +
    ¡Colabora con nosotros!
    Envíanos tu versión de esta canción
  • Tutorial
    HD
    Como tocar La Bifurcada de Memphis La blusera en el bajo tutorial#29
    4:36

Letra de La Bifurcada
no, no, no me voy a matar.
Sabes, mejor,
llevate si queres el televisor.
Mientras haces la valija,
escucha esta canción.
Si te vas, no, no, no, no voy a llorar.
Sabes, mejor, no queda otra que la separacion.
Si te llevas la cama chuchi, dejame el colchon.
Te fallo con tu amiga, feminista perdida,
tus modernos inventos, que son puro cuento.
Si te vas, no, no, no te voy a extranar.
Sabes, mejor, yo desconocia tu inclinacion.
Te decidiste, te definiste, sos feminista y yo machista.
Anda por la sombra y cerra bien el portón.
Te fallo con tu amiga, bye bye
feminista perdida, bye bye
tus modernos inventos, bye bye
que son puro cuento. bye bye
Te fallo con tu amiga, bye bye
feminista perdida, bye bye
tus modernos inventos, bye bye
que son puro cuento. bye bye




[La Bifurcada chords][La Bifurcada cifra]
© LaCuerda.net · aviso legal · privacidad · es · en · pt · contacto