Acordes de Guitarra » M »M-Clan » Carolina (Tab)

Carolina
M-Clan

Letras, Acordes y Tabs para Guitarra, Bajo y Ukulele

  • Intro:Em,C,G,D.(3veces)Bb,F,G
    
    C             G
    La dulce niña Carolina,
    D                   Am
    no tiene edad para hacer el amor
    C               G
    Su madre la estará buscando,
          D
    o eso es lo que creo yo.
    C                  G
    No puedo echarla de mi casa,
    D                    Am
    me dice que no tiene donde dormir.
    C              G
    Después se mete en mi cama,
         D
    eso es mucho para mi.
    Am        D        Am      D
    Esa va a ser mi ruina, pequeña Carolina,
    
  • INTRO:DO,SOL,RE,LAm (2veces)Sib,FA,SOL
    Punteo principio:
    E||--|3-------      -3-------3--|---5------5---5-------------|
    B||-----------       -----------|---5-7----7---5-------------|
    G|||-4---4--5- (x2)  ---5--4----|-----------------7----------|
    D||-----------       -----------|----------------------------|
    A||-----------       -----------|----------------------------|
    E||-----------       -----------|----------------------------|
    DO             SOL
    La dulce niña carolina,
    RE                          LAm
    No tiene edad para hacer el amor
    DO             SOL
    Su madre la estará buscando,
       RE
    O eso es lo que creo yo.
    
    DO               SOL
    No puedo echarla de mi casa,
    RE                   LAm
    
  • Estrofa:
    E||-0-0----------------|----------------------------|
    B||-----3-3-0-3-0------|--3-3-3-1-0-1-0-------------|
    G||---------------2-0--|----------------0-----------|
    D||--------------------|------------------2-0-------|
    A||--------------------|----------------------------|
    E||--------------------|----------------------------|
    La dulce niña Carolina  no tiene edad para hacer el amor
    
    E||---0-0------------------|-------0--------------|
    B||-------3-3-0-3-0--------|---0-3---0-0----------|
    G||-----------------2-0----|-------------2-2------|
    D||------------------------|----------------------|
    A||------------------------|----------------------|
    E||------------------------|----------------------|
    Su madre la estara esperando eso es lo que creo yo
    
    Preestribillo:
    E||-----0-3-2-------|-----0-3-2------|-0-----------|
    B||---1-------3-0---|---1-------3-0--|---0-----3---|
    G||-2---------------|-2--------------|-----2-0-----|
    D||-----------------|----------------|-----------
  • INTRO:DO,SOL,RE,LAm (2veces)Sib,FA,SOL
    
    DO             SOL
    La dulce niña carolina,
    RE                          LAm
    No tiene edad para hacer el amor
    DO             SOL
    Su madre la estará buscando,
       RE
    O eso es lo que creo yo.
    
    DO               SOL
    No puedo echarla de mi casa,
    RE                   LAm
    Me dice que no tiene donde dormir.
    DO              SOL
    Después se mete en mi cama
           RE
    Eso es mucho para mi…
    
    
  • Estrofa:
    E||-0-0----------------|----------------------------|
    B||-----3-3-0-3-0------|--3-3-3---1----0-1-0--------|
    G||---------------2-0--|----------------------------|
    D||--------------------|------------------------2-0-|
    A||--------------------|----------------------------|
    E||--------------------|----------------------------|
    La dulce niña Carolina, no tiene edad para hacer el amor
    
    E||---0-0------------------|-------0--------------|
    B||-------3-3-0-3-0--------|---0-3---0-0----------|
    G||-----------------2-0----|-------------2-2------|
    D||------------------------|----------------------|
    A||------------------------|----------------------|
    E||------------------------|----------------------|
    Su madre la estará buscando  eso es lo que creo yo
    
    Preestribillo:
    E||-----0-3-2-------|-----0-3-2------|-0-----------|
    B||---1-------3-0---|---1-------3-0--|---0-----3---|
    G||-2--------------2|-2--------------|-----2-0-----|
    D||-----------------|----------------|-------------|
    A||-------------
  • +
    ¡Colabora con nosotros!
    Envíanos tu versión de esta canción

Letra de Carolina
La dulce niña Carolina,
no tiene edad para hacer el amor
Su madre la estará buscando,
o eso es lo que creo yo.
No puedo echarla de mi casa,
me dice que no tiene donde dormir.
Después se mete en mi cama,
eso es mucho para mi.
Esa va a ser mi ruina, pequeña Carolina,
vete por favor.
Carolina tratame bien, no te rias de mi,
no me arranques la piel
Carolina tratame bien,
o al final te tendré que comer
No queda en la ciudad esquina,
tras la que yo me pueda esconder.
Siempre aparece Carolina
con algún tipo de interes.
La reina de las medicinas,
que no se venden en farmacia legal.
Vinagre para las heridas,
dulce azúcar al final.
El diablo está en mi vida, pequeña Carolina,
vete por favor.
Estribillo
Estribillo 2 veces.
Que lo disfruten




[Carolina chords][Carolina cifra]
© LaCuerda.net · aviso legal · privacidad · es · en · pt · contacto