Tablatura para Guitarra de Marcos Witt: Has cambiado mi lamento en baile
Conexión · Inscripción
Letras y Acordes
Pantalla Completa
Imprimir
Versión Texto
Añadir Favorito
Otras Versiones

Mostrar Diagramas
Desfile Automático
Manipular Acordes
Formato del Texto


Has cambiado mi lamento en baile(TAB)

Marcos Witt

calidad:
mwit0173
AUTOR: Marcos Witt
ALBUM: desconocido
Enviado por Josua
Intro

e----7-------------------------------|
B-10---10-8-----8s10-8---8-----8-----|
G-----------9-7------------7-6---6-5-|
D------------------------------------|
A------------------------------------|
E------------------------------------|

e----7-----------------------------------------|
B-10---10-8-----8s10-8--8-----8-------8-----10-|
G-----------9-7-----------7-6---6-5s6---6s7----|
D----------------------------------------------|
A----------------------------------------------|
E----------------------------------------------|


e-----7-------------------------------|
B--10---10-8-----8s10-8---8-----8-----|
G------------9-7------------7-6---6-5-|
D-------------------------------------|
A-------------------------------------|
E-------------------------------------|

e----7-----------------------------------------|
B-10---10-8-----8s10-8-------------------------|
G-----------9-7---------------------8-7-6-5-7--|
D-------------------------------5-7-------X-X--|
A---------------------------5-7-----------3-5--|
E-----------------------5-7--------------------|

e-----7---------------------------------|
B--10---10-8-----8s10-8-----------------|
G------------9-7----------5-7---9-7-6---|
D---------------------------------------|
A-------------------------3-5---7-5-4---|
E---------------------------------------|


C D Em Has cambiado mi lamento en baile
C D E5/B5/G5/F#5 me ceñiste todo de alegria
C D Em Has cambiado mi lamento en baile
C D E5/B5/F#5/G5 me ceñiste todo de alegria
G D Por tanto a ti cantare
C Em /D Gloria mia, gloria mia
G D Solo a ti Danzare
C B Gloria Mia, Gloria Mia Se repite hasta el final que queda en B... Bendiciones.
Este fichero es trabajo propio de su transcriptor y representa su interpretación personal de la canción. El material contenido en esta página es
para exclusivo uso privado, por lo que se prohibe su reproducción o retransmisión, así como su uso para fines comerciales.

© LaCuerda.net · Aviso Legal · Privacidad