Acordes de Guitarra » M »Marcos Witt » Escucharte hablar (Tab)

Escucharte hablar
Marcos Witt

Letras, Notas, Punteos, Tablaturas y Acordes de Guitarra (Tabs & Chords)

  • Letra y Acordes
    G                  D
    Quiero escuchar tu dulce voz
    
        C                       D
    rompiendo el silencio en mi ser
    
    G                  D
    se que me haria estremecer
    
         C               D 
    me haria llorar o reir
    
          C      Am       D
    y caeria rendido ante Tí
    
    
      G            D
    Y no podria estar ante Tí
    
        C                      Am          D
    
  • Letra y Acordes
    e|-----------------------------------------------------|
    B|-----------------------------------------------------|
    G|-12-14/16-14--12-11-12/14-14-------12-12-12-------14-|
    D|-----------------------------12-14----------14-12----|
    A|-----------------------------------------------------|
    E|-----------------------------------------------------|
    
    
    G                  D
    Quiero escuchar tu dulce voz
        C          Am            D
    rompiendo el silencio en mi ser
    G                  D
    se que me haria estremecer
         C     Am        D
    me haria llorar o reir
        C      Am       D
    caeria rendido ante Tí
    
      G            D
    
  • Tablatura
    G: 320033; D: 200232; C: X32033
    
    
    ARPEGIO 1
      G         D         C         D            C         D
    e|---------------------------------------|--|--------------------
    B|---3---------3---------3---------3-----|--|---3---------3------
    G|--0-0-------2-2-------0-0-------2-2----|x2|--0-0-------2-2-----
    D|-0---0-0---0---0-0---2---2-2---0---0-0-|--|-2---2-2---0---0-0--
    A|--------------------3-----3------------|--|3-----3-------------
    E|3-----3---2-----2-------------2-----2--|--|----------2-----2---
    
    
    ARPEGIO 2
      G         D         C         D            C         D
    e|---3---------2---------3---------2-----|--|---3---------2------
    B|--3-3-------3-3-------3-3-------3-3----|--|--3-3-------3-3-----
    G|-0---0-0---2---2-2---0---0-0---2---2-2-|x2|-0---0-0---2---2-2--
    D|----------0-----0-------------0-----0--|--|----------0-----0---
    A|--------------------3-----3------------|--|3-----3-------------
    
  • Piano (Teclados)
    G               D
    Quiero escuchar tu dulce voz
    G   A    B A    G  D  A  A
    
       C                        D
    Rompiendo el silencio en mí ser
    D  E   F#    G G  E      D  A
    
    G                  D
    Se que me harías estremecer
    G  A   B    A G  F# F# A A
    
         C             D
    Me harías llorar o reír
    D    E F# G  G   E D A
    
         C                C
    Y caería rendido ante ti
    E D  E G G  G E    D  A
    
    Coro:
    
      G           D
    Y no podría estar ante ti
    G D  B A  G D D   A B  A
    
        C                     D
    Escuchándote hablar sin llorar como un niño
    G A B   C B    G    G   A  B   C B     G A
    
      G          D
    Y pasaría el tiempo así
    G D B A G D  D   A  B A
    
           C                  D           C        G
    Sin querer nada más, nada más que escucharte hablar
    G   A  B   C B  G    G A  B   C     B G   D  A A  G
    
    
    Ejemplo:
    
    G                      Acorde
    Quiero escuchar        Letra
    G   A    B A           tecla
    
    PD: Cualquier duda o consulta escríbanme……
    Que Dios les bendiga mucho!!!!!
  • +
    ¡Colabora con nosotros!
    Envíanos tu versión de esta canción
  • Tutorial
    Escucharte hablar Tutorial con guitarra
    9:03
  • Tutorial
    Escucharte hablar tutorial con guitarra acustica
    5:07
  • Tutorial
    ESCUCHARTE HABLAR LECCION 5
    3:24

Letra de Escucharte hablar
Quiero escuchar tu dulce voz
rompiendo el silencio en mi ser
se que me haria estremecer
me haria llorar o reir
y caeria rendido ante Tí
Y no podria estar ante Tí
escuchandote hablar sin llorar como un niño
y pasaria el tiempo asi
sin querer nada mas
nada mas que escucharte hablar

Videos de Escucharte hablar
[ver más videos]

[ver todas las canciones]


© LaCuerda.net · Aviso Legal · Privacidad