Acordes de Guitarra » M »Marcos Witt » Has cambiado mi lamento en baile (Tab)

Has cambiado mi lamento en baile
Marcos Witt

Letras, Acordes y Tabs para Guitarra, Bajo y Ukulele

  •                C          D       Em      
         / Has cambiado mi lamento en baile,
    
               C          D     Em      D7
         me ceñiste todo de alegría. /
    
          
              G              D 
         Por tanto a Ti cantaré,
    
                 C   D        Em  D7
         Gloria mía, Gloria mía,
    
            G              D
         Y sólo a Ti danzaré,
    
                 C          Bsus  B7
         Gloria mía, Gloria mía.
    
    
    
  • Intro://A# C Dm// esto lo pueden hacer en 5tas para que suene mejor
    
          Dm       A#         C          Dm
         // Has cambiado mi lamento en gozo,
              A#         C       Dm
         me ceñiste todo de alegría. //
    
              F              C
         Por tanto a Ti cantaré,
                A#    A     Dm
         Gloria mía, Gloria mía,
           F             C
         sólo a Ti cantaré,
                A#    A     Dm   A
        Gloria mía, Gloria mía.
    
    SEGUNDA PARTE
    
           Dm         A      Dm
        // Oh Adonai, Oh Adonai.
    
  • e----7-------------------------------|
    B-10---10-8-----8s10-8---8-----8-----|
    G-----------9-7------------7-6---6-5-|
    D------------------------------------|
    A------------------------------------|
    E------------------------------------|
    
    e----7-----------------------------------------|
    B-10---10-8-----8s10-8--8-----8-------8-----10-|
    G-----------9-7-----------7-6---6-5s6---6s7----|
    D----------------------------------------------|
    A----------------------------------------------|
    E----------------------------------------------|
    
    
    e-----7-------------------------------|
    B--10---10-8-----8s10-8---8-----8-----|
    G------------9-7------------7-6---6-5-|
    D-------------------------------------|
    A-------------------------------------|
    
  • +
    ¡Colabora con nosotros!
    Envíanos tu versión de esta canción

Letra de Has cambiado mi lamento en baile
/ Has cambiado mi lamento en baile,
me ceñiste todo de alegría. /

Por tanto a Ti cantaré,
Gloria mía, Gloria mía,
Y sólo a Ti danzaré,
Gloria mía, Gloria mía.
Esta canción va enganchada con Adonai




[Has cambiado mi lamento en baile chords][Has cambiado mi lamento en baile cifra]
© LaCuerda.net · aviso legal · privacidad · es · en · pt · contacto