Acordes de Guitarra » M »Marcos Witt » Grandes Cosas (Tab)

Grandes Cosas
Marcos Witt

Letras, Acordes y Tabs para Guitarra, Bajo y Ukulele

  • G              C 
     hoy podemos sonar
    G              C
     hoy podemos reir
    D                 C          G              
     el lleno nuestra boca de alabanza
    
    
    G               C
     las naciones diran
    G                 C
     quien es como su Dios
    D                 C               G   
     el lleno nuestra vidas de gozo y danza
    
    
          
    
              'CORO'
             A              D
    
  • Intro :/G  Cadd2/ x 4
    
    
      G             Cadd2
       Hoy podemos soñar
      G            Cadd2
       Hoy podemos reir
      D                              G      Cadd2   G   Cadd2
       Él llenó nuestra boca de alabanza
      G              Cadd2
       Las naciones dirán
      G                 Cadd2
       Quien es como su Dios
      D                   C                G    D
       Él lleno nuestras vidas de gozo y danza
    
    
       CORO:
                A        E    D
       Grandes cosas ha hecho El Señor
    
  • GrAnDeS CoSaS
    
        G       C       G       C       G       C       G       C
    E|--3-3--3-------|--3-3--3-------|--3-3--3-------|--3-3--3-------||
    A|----------3-3--|----------3-3--|----------3-3--|----------3-3--||
    D|---------------|---------------|---------------|---------------||
    G|---------------|---------------|---------------|---------------||
    
    
    ::EsTroFa::
    
        G               C               G               C
    E|--3-3--3--3----|---------------|--3-3--3--3----|---------------||
    A|---------------|--3-3--3--3----|---------------|--3-3--3--3----||
    D|---------------|---------------|---------------|---------------||
    G|---------------|---------------|---------------|---------------||
    
        D               C
    E|---------5-----|---------------||
    A|-5--5--5---5-3-|--3-3--3--3-3--||    InTrO 2 primeros compases...
    D|---------------|---------------||
    G|---------------|---------------||
    
    
    ::CoRo::
    
        A        E      D       E
    E|--5-5-5----0---|------------0-||
    A|-------------7-|--5-5-5---7---||
  • +
    ¡Colabora con nosotros!
    Envíanos tu versión de esta canción

Letra de Grandes Cosas
hoy podemos sonar
hoy podemos reir
el lleno nuestra boca de alabanza
las naciones diran
quien es como su Dios
el lleno nuestra vidas de gozo y danza

'CORO'
grandes cosas ha hecho el senor
grandes cosas ha hecho el senor
nos alegraremos en el
nos alegraremos en el
hoy los pueblos sabran
cristo es el senor
en su nombre se encuentra la paz y la vida
hoy queremos cantar
con regocijo gritar
el nos dio una cancion de refugio y gracia
ire cantando con regocijo
ire sembrando semilla de amor
ire cantando de su belleza
grandeza eterna en cristo jesus




[Grandes Cosas chords][Grandes Cosas cifra]
© LaCuerda.net · aviso legal · privacidad · es · en · pt · contacto