Acordes de Guitarra » M »Marco Barrientos » Sólo a tí (Tab)

Sólo a tí
Marco Barrientos

  • Letra y Acordes
    Intro Bm/D/A/E x2
    
    Bm     D   A       E
     Poderoso santo dios
    Bm        D         A           E
    Reinas en majestad glorioso rey x2
    E       Bm           D       A
    Quiero adorar quiero adorarte x2
    F#m       E   D        F#m E    D
    Solo a ti Jesús solo a ti mi dios x2
    
    
    Esta es una adoración sencilla y corta pero muy
    especial por que ese debe ser nuestro anhelo adorar
    al rey de reyes. Pedro sosa puerto Ordaz Venezuela
    dios los bendiga
  • Letra y Acordes
    Intro Bm D A E x2
    
    Bm     D   A       E
     Poderoso santo dios
    Bm        D         A           E
    Reinas en majestad glorioso rey x2
    E       Bm           D       A
    Quiero adorar quiero adorarte x2
    F#m       E   D        F#m E    D
    Solo a ti Jesús solo a ti mi dios x2
    
    aqui les pongo la melodia nota por nota!
    
    A  A  A  F# D   C# C#     B
    Po de ro so san to dios
    F#   G#  A  A  F#  F#  E   D   C# C#    B
    Rei  nas en ma jes tad glo rio so rey
    G#   A  B C# D   F#   G# A B  D   C#
    Quie ro a do rar quie ro a do rar te
    F# G#  A  B  F#  F# G#  A  B   D
    
  • Tablatura
    e---------------------------------------------------------------
    B------3-----3--------3-----3---------2----0-2--------0-----0---
    G----4-----4--------2-----2--------2---------------1------2-----
    D--4-----4--------4-----4--------2------2--------2------2-------
    A---------------------------------------------------------------
    E---------------------------------------------------------------
    
    e----------------------------------------------------------------0-0--
    B------3-----3--------3-----3--------2----0-2-----------0-------------
    G----4-----4--------2-----2--------2-----------2-------1------2-------
    D--4-----4--------4-----4--------2------2------------2------2---------
    A---------------------------------------------------------------------
    E---------------------------------------------------------------------
    
    Bm     D   A       E
     Poderoso santo dios
    Bm        D         A           E
    Reinas en majestad glorioso rey x2
           E    Bm      D       A
    Quiero adorar quiero adorarte    [x2]
    
  • Tablatura
    e---------------------------------------------------0----
    b------3---3---------3---3---------2-0-2-0------0--------
    G----4---4--4-----2----2---2-----2------------1---1---1--
    D--4------------4--------------2------------2------------
    A--------------------------------------------------------
    E--------------------------------------------------------
    
    notas (segunda guitarra )
    
    Bm     D   A       E
     Poderoso santo dios
    Bm        D         A           E
    Reinas en majestad glorioso rey x2
    E       Bm           D       A
    Quiero adorar quiero adorarte x2
    F#m       E   D        F#m E    D
    Solo a ti Jesús solo a ti mi dios x2
    
    
    solo .-
    
  • Tab p/Bajo
    buenas,esta cancion en el bajo es facil,ya que solo marca.
    
    Intro:
    G|------------------------------------------
    D|------------------------------------------
    A|-22-222-2s5-55-555-------77-777----------- x2
    E|------------------55-555------------------
    
    Verso:''Poderoso,santo dios...'' (1:04)seg
    G|------------------------------------------
    D|------------------------------------------
    A|-22-222-2s5-55-555-------77-777----------- x2
    E|------------------55-555------------------
    
    Coro 1:''Quiero adorar,Quiero...''
    G|--------------------------------
    D|--------------------------------
    A|--7(8)-2(8)-5(8)---------------- x2
    E|-----------------5(8)-----------
    
    Coro 2:''Solo a ti jesus...''
    G|--------------------------------------
    D|--------------------------------------
    A|----------7-7-7-7--5-5-5-5-5-5-5-5---- x2
    E|--2-2-2-2-----------------------------
    
    Despues hace asi:
    Intro
    Verso
    Coro 1
    solo guitarra(notas del intro)
    Coro 1 x2
    Coro 2
    
    
    bueno esa es la cancion! espero que les sirva
    cualquier co
  • +
    ¡Colabora con nosotros!
    Envíanos tu versión de esta canción

Letra de Sólo a tí
Poderoso santo dios
Reinas en majestad glorioso rey x2
Quiero adorar quiero adorarte x2
Esta es una adoración sencilla y corta pero muy
especial por que ese debe ser nuestro anhelo adorar
al rey de reyes. Pedro sosa puerto Ordaz Venezuela
dios los bendiga



© LaCuerda.net · aviso legal · privacidad · contacto