Acordes de Guitarra » M »Marco Barrientos » Agnus Dei (Tab)

Agnus Dei
Marco Barrientos

Letras, Notas, Punteos, Tablaturas y Acordes de Guitarra (Tabs & Chords)

  • Letra y Acordes
    e-----------------------------------------------
    b-------7-----------7-9-9~10--10~9-9~7-7~-------
    g-6-7-9---999--6-7-9---------------------9------
    d-----------------------------------------------
    a-----------------------------------------------
    e-----------------------------------------------
    
    Verso:
    
    A              D
    Aleluya, Aleluya
                         D
    Reinas tu poderoso Dios
    A              D
    Aleluya, Aleluya
    
    Coro:
    
    E   A   (E/A A)   E   A
    Santo,            Santo
    
  • Letra y Acordes
    // G        C    G
       Aa  le  lu  ya
    
      G      C    D
      Aa le lu u ya
    
                 D         C         G
      Reinas    tú     poderoso,    Dios//
    
    
      G      C    D
      Aa le lu u ya
    
      C     D     G
      Sa   an     to
      D         G
       Sa  an  to
    
    //    C       G     Em7    D
     El señor    Dios poderoso
    
  • Letra y Acordes
    Tono: A
    Video: https://www.youtube.com/watch?v=gyackuNg7bE
    
    [Intro]
    A D A (x2)
    
    [Verso]
      A             D
    //Aleluya, Aleluya
                       A
    Reinas tu poderoso Dios//
    A      D
    Aleluya
    
    [Coro]
    E  A   E  A
    Santo, Santo
         A        F#m    E
    El Señor Dios poderoso
    A          D   A          D
    
  • Tablatura
    
    Aleluya .........
    
    E ---------2-------------------2--4--5--4-2-4--2---2----------
    B -2-3-3/5---5-3-5----2-3-3/5---------------------5---5-3-5---
    G ------------------------------------------------------------
    D ------------------------------------------------------------
    A ------------------------------------------------------------
    E ------------------------------------------------------------
    
    Aleluya.......
    E ----------2-------------------2--4--5--5--7--9--5--7--9----
    B -2-3-3/5---5-3-5----2-3-3/5--------------------------------
    G -----------------------------------------------------------
    D -----------------------------------------------------------
    A -----------------------------------------------------------
    E -----------------------------------------------------------
    
    El Señor Dios...
    E -----9-10-9--7-5-5-7-7--7--9--7--5-----7--9--7--5-----------
    B --10--------------------------------7--------------7--------
    G --------------------------------------------
  • Tablatura
    Intro:
    
    e||-----------------------------------------------------------
    B||---------7------------------7-9-10v---9-7-9--7---7---------
    G||-4s6-7-9---9h7h9v---4s6-7-9--------------------9----9h7h9v-
    D||-----------------------------------------------------------
    A||-----------------------------------------------------------
    E||-----------------------------------------------------------
    
     e|----------------------|------------------------------------
     B|------------------10v-|---------7---------------9----9-10v-
     G|-4v--2v--2s9-9h11-----|-4s6-7-9---9h7h9v---9-11---11-------
     D|----------------------|------------------------------------
     A|----------------------|------------------------------------
     E|----------------------|------------------------------------
    
     e|----------------------------------------||
     B|---------7-9-10v---9-7-9--7---7---------||
     G|-4s6-7-9--------------------9----9h7h9v-||
     D|----------------------------------------||
     A|----------------------------------------||
     E|-
  • Piano (Teclados)
    AGNUS DEI
    
    INTRODUCCION PARA PIANO:
        C# D E F#
        C# D E F# G# A
        A B C#
        A B C#
        A B D C#
        B A G# A B
        B C# B A F#
        B C# B A F#
        F# G# A G# A
    
       A              D
     //aleluya,aleluuya,
                                A
      nuestro Dios poderoso es Rey//
       A              D            A
      aleluya,aleluuya,saanto.....saanto
            A                     E
      eres tu Diooooss poderoso reyyy......
                   D                 D
      /Digno eres tuuuu, cordero de Dios,
                 A
       el es saaantoo/
            A                          E
       saaanto ,eres tu Dios poderoso Rey......
                   D               D      A
      /Digno eres tu , Digno eres tu/...amen
    
    espero que les guste, la introduccion es para piano es transcribida
     de guitarra para piano,
    Dios los bendiga si hay algun error me dicen
  • +
    ¡Colabora con nosotros!
    Envíanos tu versión de esta canción
  • Tutorial
    Agnus dei tutorial con guitarra
    7:36

Letra de Agnus Dei
Verso:
Aleluya, Aleluya
Reinas tu poderoso Dios
Aleluya, Aleluya
Santo, Santo
El Señor Dios poderoso
Digno eres Tú, Digno eres Tú,
Tú eres Santo, Santo
El Señor Dios poderoso
Digno eres Tú, Digno eres Tú,
DIOS LES BENDIGA ESPERO QUE LES GUSTE MUCHO.



© LaCuerda.net · Aviso Legal · Privacidad