Acordes de Guitarra » M »Marco Barrientos » Rey de reyes (Tab)

Rey de reyes
Marco Barrientos

Letras, Acordes y Tabs para Guitarra, Bajo y Ukulele

  • Em       Cmaj7   D        Em
      Rey de reyes señor de señores
          C          G     D
      Tú reinas con autoridad
    Em       C          D       Em
      En la tierra establece tu reino
            C6                B7+5
      Con espada tu juicio darás
    
    VERSO 1:
    
    Cmaj7  D     Em
      Revela tu gloria
    Cmaj7    D        (E   F# G  B)
      Y manifiesta tu gran po-de-er
    Cmaj7        D         Em
      Los tronos de las naciones
             Am                 B7+5
      Te confiesan hoy como su rey
    
    
  • Intro: D5-A5-D5-E5 x2
    
    5c -----5-5-5--------------------------------------
    4c ------------------------------7-7-7-7-7-7-7-7---
    3c --------------7-7-7-6-6-6-----------------------
    
    5c --5-5-5------------------------------------------     Se toca una luego
    4c ------------------7-7-7-7-7-7-7-7----------------    se repite todo y
    3c ------7-7-7-9-9-9--------------------------------     entre la tercera tab.
    
    5c ---7-7-7-----------------------------------------
    4c -------------------------7-7-7-7-7-7-7-9-9-9....-
    3c ----------7-7-7-6-6-6----------------------------
    
    ESTROFA1:
    
    D5           A5
    Rey de reyes te adoramos
    E5          G5
    Tu grandeza proclamamos          Durante la estrofa se utiliza
    
  • D - A - Em7 - G  x2
    
    
    ESTROFA
    
    D              A
    Rey de reyes, te adoramos
    Em7              G
    Tu grandeza proclamamos
    D              A
    Rey de reyes, Soberano
    Em7            G
    Tu victoria, celebramos.
    
    
    PRE-CORO
    
    Bm7        A               Em7           D
    Eres Jesús el que dio vida a nuestro corazón
    Bm7           A             G             A
    
  • +
    ¡Colabora con nosotros!
    Envíanos tu versión de esta canción
  • Tutorial
    HD
    Marcos Barrientos Rey De Reyes Bajo Tutorial with Tabs (HD)
    5:11

Letra de Rey de reyes
Rey de reyes señor de señores
Tú reinas con autoridad
En la tierra establece tu reino
Con espada tu juicio darás
VERSO 1:
Revela tu gloria
Y manifiesta tu gran po-de-er
Los tronos de las naciones
Te confiesan hoy como su rey
VERSO 2:
So-mos tu pueblo
Destruyendo todo prin-ci-pa-do
Y tus amados libres son
Por tu nombre Jesús
Admirable consejero
Dios fuerte consolador
Poderoso padre eterno
Príncipe de paz
EN LOS TONOS ENTRE PARENTESIS, SOLO SE MARCAN LAS NOTAS
Dios les bendiga




[Rey de reyes chords][Rey de reyes cifra]
© LaCuerda.net · aviso legal · privacidad · es · en · pt · contacto