Tablatura para Guitarra de Marco Barrientos: Sólo a tí
Conexión · Inscripción
Letras y Acordes
Pantalla Completa
Imprimir
Versión Texto
Añadir Favorito
Otras Versiones

Mostrar Diagramas
Desfile Automático
Manipular Acordes
Formato del Texto


Sólo a tí(TAB)

Marco Barrientos

calidad:
mbar1754
AUTOR: Marco Barrientos
ALBUM: Cree todo es Posible (2007)
Enviado por sebastian
Intro
e---------------------------------------------------------------
B------3-----3--------3-----3---------2----0-2--------0-----0---
G----4-----4--------2-----2--------2---------------1------2-----
D--4-----4--------4-----4--------2------2--------2------2-------
A---------------------------------------------------------------
E---------------------------------------------------------------

e----------------------------------------------------------------0-0--
B------3-----3--------3-----3--------2----0-2-----------0-------------
G----4-----4--------2-----2--------2-----------2-------1------2-------
D--4-----4--------4-----4--------2------2------------2------2---------
A---------------------------------------------------------------------
E---------------------------------------------------------------------

Bm D A E Poderoso santo dios
Bm D A E Reinas en majestad glorioso rey x2
E Bm D A Quiero adorar quiero adorarte [x2]
F#m E D F#m E D Solo a ti Jesús solo a ti mi dios [x2] Solo e---12-12-12------------------------------------------------- b------------12-12---14-14--14b15r14b15b14b15r14------------- G------------------------------------------------------------ D------------------------------------------------------------ A------------------------------------------------------------ E------------------------------------------------------------ e----------------------------------------12-14-16-17-19------ b--17-15-12-14b-14v---14-12-10-12b-12v----------------------- G------------------------------------------------------------ D------------------------------------------------------------ A------------------------------------------------------------ E------------------------------------------------------------ e-19b-17-19----17v--19b-17-19---17v---16-17--19-19---16-14--- b-----------19----------------19---------------------------17 G------------------------------------------------------------ D------------------------------------------------------------ A------------------------------------------------------------ E------------------------------------------------------------ v = Vibrato b = Bend r = release
Este fichero es trabajo propio de su transcriptor y representa su interpretación personal de la canción. El material contenido en esta página es
para exclusivo uso privado, por lo que se prohibe su reproducción o retransmisión, así como su uso para fines comerciales.

© LaCuerda.net · Aviso Legal · Privacidad