Acordes de Guitarra » M »Marco Barrientos » Manda Lluvia (Tab)

Manda Lluvia
Marco Barrientos

  • Letra y Acordes
      Intro: D
      D
    1.Vengo ante ti
                        G
      Con el corazon rendido a tus pies
                       Bm                 A
      Con mi vida entregada para ser tuyo Dios
    
      D
    2.Y te clamare
                       G
      Por un fuego que llueva sobre mi
                            Bm
      Por un deseo que transforme mi interior
                   A
      De traerte honor
    
          G          D/F#       Em           A
    3.Desciende, desciende, desciende sobre mi
          G          D/F#       Em           A
    
  • Tablatura
    Intro: D
    
             D
    Verso 1: Vengo ante ti
                               G
             Con el corazón rendido a tus pies
                              Bm
             Con mi vida entregada para ser
                    A
             Tuyo Dios
             D
             Y te clamaré
                                G
             Por un fuego que llueva sobre mí
                                   Bm
             Por un deseo que transforme mi interior
                          A
             De traerte honor
    
                G         D/F#
    
  • Tablatura
          D
    E------------------------------------
    B------------------------------------
    G-------7---------------------------
    D-------7----------------------------
    A-------5---------------------------
    E------------------------------------
         G
    E--------------------------------------
    B-------------------------------------
    G------4------------------------------
    D------5------------------------------
    A------5------------------------------
    E------3-------------------------------
    
    Bm
    E------------------------------------
    B-----3-----------------------------
    G-----4-----------------------------
    D-----4-----------------------------
    
  • Tablatura
    Solo
    
    E----------------------------------------------------------
    B----10s15-15-15--14-14------------------------------------
    G-----------------------------16-16-14-14------------------  x2
    D-----------------------16-16------------------------------
    A------------------------------------------17-17-17-17-----
    E----------------------------------------------------------
    
    E---------------------------------------------------------
    B--15-17-17-17-17-17-17-17--------------------------------
    G---------------------------------- -----------------------  x2
    D----------------------------------------------------------
    A----------------------------------------------------------
    E----------------------------------------------------------
    
    E--------------------------------------------------------
    B-----15-15-15-14-14-14--15-15-15-14-14-14--15-15-14-15--
    G--------------------------------------------------------
    D--------------------------------------------------------
    A---------------------------------
  • Tab p/Bajo
    INTRO
    E|--------------
    A|-55555555----- (X4)
    D|--------------
    G|--------------
    
    VERSO 1
    D                     G                     Bm                A
    Vengo ante ti…
    E|-------------------3333333333333333---------------------------------------
    A|-5555555555555555-----------------------2222222222222222-0000000000000000-
    D|--------------------------------------------------------------------------
    G|--------------------------------------------------------------------------
    
    E|-------------------3333333333333333------------------------------------
    A|-5555555555555555-------------------2222222222222222-0000000000000000--
    D|-----------------------------------------------------------------------
    G|-----------------------------------------------------------------------
    
    Desciende…
    E|---------------------------------------------
    A|-1010101010101010-99999999-77777777-00000000- x2
    D|---------------------------------------------
    G|---------------------------------------------
    
    E|----------------
  • +
    ¡Colabora con nosotros!
    Envíanos tu versión de esta canción
  • Tutorial
    Solo de manda Lluvia - Marco Barrientos
    0:43

Letra de Manda Lluvia
1.Vengo ante ti
Con el corazon rendido a tus pies
Con mi vida entregada para ser tuyo Dios
2.Y te clamare
Por un fuego que llueva sobre mi
Por un deseo que transforme mi interior
De traerte honor
3.Desciende, desciende, desciende sobre mi
Desciende, desciende, desciende hoy aqui
Guitar Break: Bm G Bm G
4.Creo en el poder
Cuando te clamo en oracion
Para ofrecerte todo mi amor, en adoracion
Y te clamare
Que sobre toda mi generacion
Arda este deseo y pasion
De traerte honor
5.Manda lluvia, temprana y tardia
Que llene hoy mi vida con pasion
Orden
1
2
3
Break
4
3
5 - 2x
4
5 - 2x
Guitar Break - 2 bars
3 - 2x
5 - 2x
No tiene que ser cantado en la misma orden, haga lo que usted
sienta en el corazon .. Dios les bendiga a todos 8]



© LaCuerda.net · aviso legal · privacidad · contacto