Tablatura para Guitarra de Marco Barrientos: Manda Lluvia
Conexión · Inscripción
Letras y Acordes
Pantalla Completa
Imprimir
Versión Texto
Añadir Favorito
Otras Versiones

Mostrar Diagramas
Desfile Automático
Manipular Acordes
Formato del Texto


Manda Lluvia(TAB)

Marco Barrientos

calidad:
mbar2043
AUTOR: Marco Barrientos  corregir
ALBUM: Avivanos (2008)
Enviado por Gipsy
Solo

E----------------------------------------------------------
B----10s15-15-15--14-14------------------------------------
G-----------------------------16-16-14-14------------------  x2
D-----------------------16-16------------------------------
A------------------------------------------17-17-17-17-----
E----------------------------------------------------------

E---------------------------------------------------------
B--15-17-17-17-17-17-17-17--------------------------------
G---------------------------------- -----------------------  x2
D----------------------------------------------------------
A----------------------------------------------------------
E----------------------------------------------------------

E--------------------------------------------------------
B-----15-15-15-14-14-14--15-15-15-14-14-14--15-15-14-15--
G--------------------------------------------------------
D--------------------------------------------------------
A--------------------------------------------------------
E--------------------------------------------------------


E--17-17-17-----------14-14-14---------------------
B-----------15-15-15-----------15-15-15------------
G----------------------------------------14-14-14-- x2
D--------------------------------------------------
A--------------------------------------------------
E--------------------------------------------------

E---14----14--14----14----14----14----14----14-----
B------17--------17----17----17----17----17--------
G---------------------------------- ---------------
D--------------------------------------------------
A--------------------------------------------------
E--------------------------------------------------


E--------------------------------------------------
B----15-14----12-----10----------------------------
G--------------------------s9-----s12--------------
D--------------------------------------------------
A--------------------------------------------------
E--------------------------------------------------

Dios les bendiga, espero le sea util..
Este fichero es trabajo propio de su transcriptor y representa su interpretación personal de la canción. El material contenido en esta página es
para exclusivo uso privado, por lo que se prohibe su reproducción o retransmisión, así como su uso para fines comerciales.

© LaCuerda.net · Aviso Legal · Privacidad