Tablatura para Bajo de Marco Barrientos: Amanece
Conexión · Inscripción
Letras y Acordes
Pantalla Completa
Imprimir
Versión Texto
Añadir Favorito
Otras Versiones

Mostrar Diagramas
Desfile Automático
Formato del Texto


Amanece(BAJ)

Marco Barrientos

calidad:
mbar3042
AUTOR: Esteban Alvarado
ALBUM: Amanece (2014)
Enviado por Ángel
Pues aquí les dejo la tablatura para alguna sugerencia les dejo mi
Correo afccamargo11@gmail.com

Intro
     Em.             C
G---------------------------------------
D---------------------------------------
A----7-7-7-------7---3-3-3-3-3-3-3h5----
E----------0-0-0---0--------------------
     G.              Bm.     D
G---------------------------------------
D---------------------------------------
A--------------------2-2-2-2-5-5-5-5----
E----3-3-3-3-3-3-3h5--------------------

Verso
Tu luz, trae un nuevo despertar...

G--------------------------------
D------------------5-------------
A----7-7/--3-3-----------2--2----
E--------------3-----3-5---------

Algo grande viene hoy...

G---------------------------------
D----------5---------5------------
A----7-5-7---7-5-----------2--2---
E----------------3-----3-5--------

Que tu reposes dándonos tu luz...

G----------------------------------
D----------5---------5-------------
A----7-5-7---7-5-----------2----2--
E----------------3-----3-5----3----

Pre Coro
Tú luz, siempre brillará...
     C.          D.      Em.     G.
G----------------------------------------------
D----------5-5---------------------------------
A----3~--------3h5/-/17--7--------------2---2--
E---------------------------7-0--3--3h5---3----

Coro
Y Amanece hoy...
     C.       D.       En.      G.
G------------------------------------------------ El punto significa
D------------------------------------------------ que tienes que
A----3-3-3-3.-5-5-5-5.-7-7-7-7.---------2-2---2-- repetir la figura
E-------------------------------3-3-3-3-----3----

Intro
Se hace lo mismo

Verso II
Se hace lo mismo

Pre Coro
Se hace lo mismo

Coro
Aquí solo cambia la cuarta sección del coro para llegar a un puente.
     C.       D.       Em.      G.             C
G-------------------------------------------------
D-------------------------------------------------
A----3-3-3-3.-5-5-5-5.-7-7-7-7.-10-10-10-10-------
E-------------------------------------------7--8--

Cuando termina el coro y llega al puente, el bajo hace
Una figura durante está en C.

G----------------------------------
D-------9----/12----14--12--10/---- Escuchen la canción para
A----10---10----------------------- entender mejor está parte.
E----------------------------------

...
     C.              D
G---------------------------------------
D---------------------------------------
A----3-3-3-3-3-3-3/--5-5-5-5-5-5-5-3----
E---------------------------------------
     Bm.             Em
G--------------------------------
D--------------------------------
A----2-2-2-2-2-2-2/--7-7-7-7.----
E--------------------------------

Despues se vuelve a repetir el Coro junto con la intro
La única diferencia es el último compas para terminar
La canción
     Em.              C
G----------------------------------------
D----------------------------------------
A----7-7-7-------7----3-3-3-3-3-3-3h5----
E----------0-0-0----0--------------------
     G.                            C
G------------------------------------------
D--------------5-5---5~--------------------
A-------------------------------2--3/15----
E----3-3-3-3-3-----3------3--5-------------

La parte final son como cortés, así que practiquen mucho y escuchen
La canción

Espero les sirva ;v
Ángel Cruz Camargo
Este fichero es trabajo propio de su transcriptor y representa su interpretación personal de la canción. El material contenido en esta página es
para exclusivo uso privado, por lo que se prohibe su reproducción o retransmisión, así como su uso para fines comerciales.

© LaCuerda.net · Aviso Legal · Privacidad