Acordes de Guitarra » M »Marco Barrientos » Amanece (Tab)
  • Letra y Acordes
    Em (C) G              Bm7   Em  C
    Tu luz trae un nuevo despertar
        G         Bm7    Em   C
    Nuevo tiempo que abrirá
     G       Bm7         Em    C    G           Bm7    Em C
    Como una fuente, el cielo con su gloria y su favor
    G           Bm7     Em  C
    Algo grande viene hoy
    G            Bm7    Em  C
    Más que una visitación
    G       Bm7        Em     C      G   G/B
    Que tu habites, que tu reposes, dándonos
    
    PRE CORO
    C         D
    Tu luz, tu luz
    Em                      G           G/B
    Siempre brillará, por siempre brillará
    C          D
    Tu amor, tu amor
    
  • Tab p/Bajo
    Pues aquí les dejo la tablatura para alguna sugerencia les dejo mi
    Correo afccamargo11@gmail.com
    
    Intro
         Em.             C
    G---------------------------------------
    D---------------------------------------
    A----7-7-7-------7---3-3-3-3-3-3-3h5----
    E----------0-0-0---0--------------------
         G.              Bm.     D
    G---------------------------------------
    D---------------------------------------
    A--------------------2-2-2-2-5-5-5-5----
    E----3-3-3-3-3-3-3h5--------------------
    
    Verso
    Tu luz, trae un nuevo despertar...
    
    G--------------------------------
    D------------------5-------------
    A----7-7/--3-3-----------2--2----
    E--------------3-----3-5---------
    
    Algo grande viene hoy...
    
    G---------------------------------
    D----------5---------5------------
    A----7-5-7---7-5-----------2--2---
    E----------------3-----3-5--------
    
    Que tu reposes dándonos tu luz...
    
    G----------------------------------
    D----------5---------5-------------
    A----7-5-7---7-5-----------2----2--
    E----------------3----
  • +
    ¡Colabora con nosotros!
    Envíanos tu versión de esta canción
  • Tutorial
    HD
    Marco Barrientos Amanece Bajo Tutorial with Tabs (HD)
    4:53
  • Tutorial
    HD
    Amanece Tutorial Piano MARCO BARRIENTOS
    10:57

Letra de Amanece
Tu luz trae un nuevo despertar
Nuevo tiempo que abrirá
Como una fuente, el cielo con su gloria y su favor
Algo grande viene hoy
Más que una visitación
Que tu habites, que tu reposes, dándonos
PRE CORO
Tu luz, tu luz
Siempre brillará, por siempre brillará
Tu amor, tu amor
Fuente inagotable, sol que brilla y…
Amanece hoy con tu gloria, Dios
Resplandece hoy con tu perdón, con tu amor
La oscuridad no tiene lugar
Amanece hoy con tu perdón, con tu amor
| C | D | Bm | Em |



© LaCuerda.net · aviso legal · privacidad · contacto