Acordes de Guitarra » M »Marco Barrientos » Amado Salvador (Tab)

Amado Salvador
Marco Barrientos

Letras, Acordes y Tabs para Guitarra, Bajo y Ukulele

  •    D#m7         C#add2
    EN TU SANTUARIO, MI SEÑOR
       A#m7            B
    QUIERO OFRECER MI CORAZON
      D#m7       C#add2
    RECONOCER TU GRAN AMOR
       B      C#
    TU PERDON
    
       D#m7        C#add2
    TU SACRIFICIO PROVEYO
         A#m7       B
    EL CAMINO A TU CORAZON
          D#m7       C#add2
    CON GRATITUD Y ADORACION
    B
    CANTARE
    
    CORO
           F#               C#m        E
    
  • D#add9-C#add9-Badd9
    
    
    VERSO
        D#add9        C#add9
    EN TU SANTUARIO, MI SEÑOR
         Badd9         B
    QUIERO OFRECER MI CORAZON
       D#add9      C#add9
    RECONOCER TU GRAN AMOR
     Badd9
    TU PERDON
    
        D#add9      C#add9
    TU SACRIFICIO PROVEYO
     Badd9          B
    EL CAMINO A TU CORAZON
          D#add9     C#add9
    CON GRATITUD Y ADORACION
          Badd9
    
  •  Db   Ebm7               Db(add2)
       EN TU SANTUARIO, MI SEÑOR
           Bbm7           Cb
       QUIERO OFRECER MI CORAZON
         Ebm7            Db(add2)
       RECONOCER TU GRAN AMOR
        Cb
       TU PERDON
    
     Db   Ebm7              Db(add2)
       TU SACRIFICIO PROVEYO
            Bbm7           Cb
       EL CAMINO A TU CORAZON
           Ebm7             Db(add2)
       CON GRATITUD Y ADORACION
       Cb
       CANTARE
    
    CORO
           Gb                          Dbm           Fb
    
  • Bueno aqui les presento ahora el solo de guitarra de amado salvador
    lo saque a oido espero les sirva, a mi parecer esta muy parecido
    haganlo y cualquier duda me dicen. :)
    
    e-----------------------------9---------------------------------
    b----------11-9-11-9--------------------------------------------
    G---10h11------------11-10-10---10--10----------11-------11-13v-
    D--------------------------------------11-11s13----13-13--------
    A---------------------------------------------------------------
    E---------------------------------------------------------------
    
    e--------------------------------------------------9------------
    b--------------14---------------11-9-11-9-----------------------
    G--11-13s15-15----13p15p13--11------------11-10-10---10-10------
    D----------------------------------------------------------11---
    A---------------------------------------------------------------
    E---------------------------------------------------------------
    
    e---11v-16v---18-16-------18------------------
  • E -----------------------------------
    A -s6-6-6-4-6-6-6--2-4-4-2-4---------
    D ---4-------------------------------
    G -----------------------------------
    B -----------------------------------
    e -----------------------------------
    
    E -4-6-6-6--4-6-6-6--6-7-7-6-7-------
    A -----------------------------------
    D -----------------------------------
    G -----------------------------------
    B -----------------------------------
    e -----------------------------------
    
    E -----------------------------------
    A -s6-6-6-4-6-6-6--2-4-4-2-4--2------
    D ---4-------------------------------
    G -----------------------------------
    B -----------------------------------
    e -----------------------------------
    
  • Hola amigos, aqui Nahum, les traigo el solo de Amado Salavador,
    hojala y les ayude Dios les bendiga :)
    
    s=slide
    b=bend
    ^=half step
    h=hammer
    
    
    e----------------------------------------------------------------
    B------------11-------------13-----------------------------------
    G-------8s11-13b(2)---11-10---11-10--------------11----11--11-13-
    D-----------------------------------11--11-11h13----13-----------
    A----------------------------------------------------------------
    E----------------------------------------------------------------
    
    
    e---------------------------------------------------
    B-------------------------11-------------13---------
    G-11-13s15-15b^-15-13-11--13b(2)---11-10---11-10----
    D------------------------------------------------11-
    A---------------------------------------------------
    E---------------------------------------------------
    
    
    e-11------16----14s18--16-14-13--18-13-13-------------14--14-
    B-14b(3)--19(3)---------------------------14--14-14s16--16---
    G---------------
  • Intro/Verso
    e|-------------------------4---------------
    a|-4-----4-----4-2-4-0-1-1---1-1-2m-2m-1-2-
    d|---1-1--1-1------------------------------
    g|-----------------------------------------
    
    -------------------------|
    -4-----4-----4-2-4-4-0-2-|
    ---1-1--1-1--------------|
    -------------------------|
    
    Adorno:
    e|-------------|
    a|-------------|
    d|-2s4---------|
    g|-----6-4-3s4-|
    
    
     F#            C#     E
    Tu amor, amor que me dio la libertad
            B
    tu sangre me dio la vida
      F#        C#
    tu amor, camino, verdad y vida
     E    B
    eres tu.
    
    
    Solo de Guitarra/Final:
    e|----------------4(5)-|
    a|------1(5)-2(5)------|
    d|-1(5)----------------|
    g|---------------------|
    
    
    Puente:
          F#       C#
    Me alegrare y me gozare
          E        B
    en ti Jesús mi redentor
     F#       C#
    Amado Salvador
     E    B
    eres tu
  • +
    ¡Colabora con nosotros!
    Envíanos tu versión de esta canción

Letra de Amado Salvador
EN TU SANTUARIO, MI SEÑOR
QUIERO OFRECER MI CORAZON
RECONOCER TU GRAN AMOR
TU PERDON
TU SACRIFICIO PROVEYO
EL CAMINO A TU CORAZON
CON GRATITUD Y ADORACION
CANTARE
TU AMOR, AMOR QUE ME DIO LA LIBERTAD
TU SANGRE ME DIO LA VIDA
TU AMOR, CAMINO, VERDAD Y VIDA
ERES TU
estos son los acordes originales de la produccion!
100% correcto todo pedro sosa
puerto ordaz venezuela dios los bendiga




[Amado Salvador chords][Amado Salvador cifra]
© LaCuerda.net · aviso legal · privacidad · es · en · pt · contacto