Acordes de Guitarra » M »Marco Antonio Solís » Tu hombre perfecto (Tab)

Tu hombre perfecto
Marco Antonio Solís

Letras, Notas, Punteos, Tablaturas y Acordes de Guitarra (Tabs & Chords)

  • Letra y Acordes
                 A                        G#m C#m
    e|--11/12-11-7-9---5-7-7/9-11-11/12-12---11-7------|
    B|-------------------------------------------------|
    G|-------------------------------------------------|
    D|-------------------------------------------------|
    A|-------------------------------------------------|
    E|-------------------------------------------------|
    
              F#m      B        E
    e|--5/7-5-4-5---2-4-4/5-7-9-7-5-4------|
    B|-------------------------------------|
    G|-------------------------------------|
    D|-------------------------------------|
    A|-------------------------------------|
    E|-------------------------------------|
    
            E           A           B            E
    A la medida, pocas cosas en la vida encontraras
             E                 A             B          E     E7
    con el tiempo, sin darte cuenta en su momento lo veras
    
  • Tablatura
    D------------------------------------------------
    G------------------------------------------------
    B------12-14-10-12-14--------------------12-11h12
    e-11/12--------------11-11h12-12-11h12p11--------
    
    
    D-----------------------------------------------
    G--------11-------------------------------------
    B-10-9-10--9-10-12-14-12-10-9-------------------
    e-----------------------------------------------
    
    E
    A LA medida
               A           B            E
    Muy pocas cosas en la vida encontraras
    E
    Y con el tiempo
                A            B            E
    Sin darte cuenta en su momento lo veras
      B
    
  • +
    ¡Colabora con nosotros!
    Envíanos tu versión de esta canción

Letra de Tu hombre perfecto
A la medida, pocas cosas en la vida encontraras
con el tiempo, sin darte cuenta en su momento lo veras
a la medida, solo hallaras lo que cabe en tu corazón
buscando afuera, es más certera una triste desilusión.
Creo que venimos, a este mundo nada más para aprender
y sin pensarlo, tarde o temprano alguien te lo hará entender
con tu permiso, con mis defectos a otro lado ya me voy
más nunca olvides, que yo te amé con lo bueno y malo que soy.
No hay hombre perfecto no hay
como el que buscaste en mi
perfecta es la lluvia que cae
y no lo que tú has de elegir.
Como inventaste que era yo
esa infalible solución
que haría feliz por siempre a
tu corazón.
Tu hombre perfecto será
el que nunca a ti llegara.
No hay hombre perfecto no hay
como el que buscaste en mi
perfecta es la lluvia que cae
y no lo que tú has de elegir.
Como inventaste que era yo
esa infalible solución
que haría feliz por siempre a
tu corazón.
Tu hombre perfecto será
el que nunca a ti llegara.

Videos de Tu hombre perfecto
[ver más videos]

[ver todas las canciones]


© LaCuerda.net · Aviso Legal · Privacidad