Acordes de Guitarra » M »Marco Antonio Solís » O me voy o te vas (Tab)

O me voy o te vas
Marco Antonio Solís

Letras, Acordes y Tabs para Guitarra, Bajo y Ukulele

  •       Gaug
      e----3--------------
      B-----4-------------
      G-----4-------------
      D-------5-----------
    X A-------------------
    X E-------------------
    
    B
    Vives
               Gaug                  E
    acentuando día a día mis defectos
        F#7                       G#m
    resaltando lo que no me sale bien
          B
    comparándome con todos
         G#m                  F#7
    que debía ser como este y como aquel
    
    B
    
  • olash banda  soy edgar de toluca,a la otra vesion solo le falta esto
     ahi se los paso se lo dedico a karla que le gusta muchop esa rola si
     kieren + rolas o requintos
    o solos o lo q sea pues diganme y se los corro a ver que les parc
    mi mail es ed_che19@hotmail.com o www.bad-angel666@hotmail.com
    
    
    INTRO X 2
    
    E----------------------------------------------------------
    A----------------------------------------------------------
    D----------------------------------------------------------
    G----------------------------------------------------------
    B-----------12-------------------12---12---12-9------------
    E—9/11—11—9----9-11-9-11-11-11-9----9----9-----------------
    
    
    
    Que debia ser como este y como aquel............
    
    
    E---------------------------------
    A---------------------------------
    D---------------------------------
    G---------------------------------
    B---------------5h6/7-7-----------
    e---6-6-6-6-4-4-------------------
    
    
    
    o me voy a t vas.............
    
    Solo: (es el del violín pero 
  • +
    ¡Colabora con nosotros!
    Envíanos tu versión de esta canción

Letra de O me voy o te vas
Vives
acentuando día a día mis defectos
resaltando lo que no me sale bien
comparándome con todos
que debía ser como este y como aquel
Vives
remendando según tu todas mis fallas
recordándome que no voy a aprender
que me falta demasiado
para tener a mi lado a una mujer
Llevo
con tristeza en mi espalda tu desdicha
creo
que debemos por las buenas terminar.
Si te hago tanto mal
mejor déjame tranquilo
antes que se rompa el hilo que quedo
sosteniendo lo poco que se salvo
de nuestro amor.
Si te hago tanto mal
porque le das tantas vueltas
y te evitas ridiculizarme mas
para que esto se termine en santa paz
o me voy o te vas.
<MUSICA>
Llevo...(Se Repite desde aquí)




[O me voy o te vas chords][O me voy o te vas cifra]
© LaCuerda.net · aviso legal · privacidad · es · en · pt · contacto