Acordes de Guitarra » M »Marco Antonio Solís » Donde estará mi primavera (Tab)

Donde estará mi primavera
Marco Antonio Solís

Letras, Acordes y Tabs para Guitarra, Bajo y Ukulele

  • MIm
    YO TE DEBO TANTO
    LA
    TANTO AMOR QUE AHORA
    RE                   SOL
    TE REGALO MI RESIGNACION SI7
    MIm
    SE QUE TU ME AMASTE
    LA
    YO PUEDO SENTIRLO
    RE
    QUIERO DESCANSAR 
              SOL
    EN TU PERDON
    
    SOL
    VOY A HACER DE CUENTA 
    RE
    QUE NUNCA TE FUISTE
    LAm
    
  • SOLm
    YO TE DEBO TANTO
    DO
    TANTO AMOR QUE AHORA
    FA                   LA#  RE
    TE REGALO MI RESIGNACION
    SOLm
    SE QUE TU ME AMASTE
    DO
    YO PUEDO SENTIRLO
    FA
    QUIERO DESCANSAR
              LA#
    EN TU PERDON
    
    LA#
    VOY A HACER DE CUENTA
    FA
    QUE NUNCA TE FUISTE
    DOm
    
  • Holas... espero q les guste este tab
    ustedes pueden agregar vibratos si quieren o tocarlo asi..
    de las dos formas suena muy bien.. Saludos...
    
    Solo:
    
    
    E|--------------10-8--8-8-9/10-8p10h8--
    B|--------10---------------------------
    G|--10-12----12------------------------
    D|-------------------------------------
    A|-------------------------------------
    E|-------------------------------------
    
    
    E|--------------10-8p10h8-------------------------------
    B|--------10---------------11-10-11--11p13h11p13h11-10--
    G|--10-12----12-----------------------------------------
    D|------------------------------------------------------
    A|------------------------------------------------------
    E|------------------------------------------------------
    
    
    E|--------------10-8--5/8-8-10-8p10h8--
    B|--------10---------------------------
    G|--10-12----12------------------------
    D|-------------------------------------
    A|-------------------------------------
    E|-------------------------------------
    
    
    E|--------------10-8-
  • +
    ¡Colabora con nosotros!
    Envíanos tu versión de esta canción

Letra de Donde estará mi primavera
YO TE DEBO TANTO
TANTO AMOR QUE AHORA
TE REGALO MI RESIGNACION SI7
SE QUE TU ME AMASTE
YO PUEDO SENTIRLO
QUIERO DESCANSAR
EN TU PERDON
VOY A HACER DE CUENTA
QUE NUNCA TE FUISTE
QUE HAS IDO DE VIAJE
Y NADA MAS
Y CON TU RECUERDO
CUANDO ESTE MUY TRISTE
LE HARE COMPA~IA
A MI SOLEDAD
QUIERO QUE MI AUSENCIA
SEAN LAS GRANDES ALAS
CON LAS QUE TU PUEDAS EMPRENDER si7
ESE VUELO LARGO
DE TANTAS ESCALAS
Y EN ALGUNA ME PUEDAS PERDER
YO AQUI ENTRE LA NADA
VOY A HABLAR DE TODO
BUSCARE A MI MODO CONTINUAR
Y HASTA QUE LOS A~OS
CIERREN MI MEMORIA
NO ME DEJARE DE PREGUNTAR
DONDE ESTARA MI PRIMAVERA?
DONDE SE ME HAESCONDIDO EL SOL?
QUE MI JARDIN OLVIDO
Y EL ALMA ME MARCHITO
YO AQUI ENTRE LA NADA
VOY A HABLAR DE TODO
BUSCARE A MI MODO CONTINUAR
Y HASTA QUE LOS A~OS
CIERREN MI MEMORIA
NO ME DEJARE DE PREGUNTAR
DONDE ESTARA MI PRIMAVERA?
DONDE SE ME HA ESCONDIDO EL SOL?
QUE MI JARDIN OLVIDO
Y EL ALMA ME MARCHITO




[Donde estará mi primavera chords][Donde estará mi primavera cifra]
© LaCuerda.net · aviso legal · privacidad · es · en · pt · contacto