Acordes de Guitarra » M »Marco Antonio Solís » Más que tu amigo (Tab)

Más que tu amigo
Marco Antonio Solís

Letras, Acordes y Tabs para Guitarra, Bajo y Ukulele

  •          C#
    QUIERO DECIRTE ESTA NOCHE SIN VACILACION 
                                                       A#, 
    QUE YA NO AGUANTO LO QUE TENGO AQUI EN MI CORAZON
    D#                         A#   G#
       ME GUSTAS TANTO ME ENLOQUESES Y NO 
                     G7 D#                      A#    G#
    LO PUEDO YA OCULTAR,   EN TODOS LADOS TE APARECES 
                         G7
    COMO ILUSION EN MI MIRAR 
    
    estrofa   2............
    
             C#            
    ES UN SECRETO QUE TAN SOLO QUIERO COMPARTIR
                                                 A#
    CON ESOS OJOS QUE ME HAN DADO LUZ AMI VIVIR
    D#                                A#    G#
        QUE EN ESTA NOCHE NO HAY  MAS LUNA 
                          G7
    
  • INTRO: Fm-Cm-Fm-Cm-A#-D#-G#-G7-Cm (junto A melodía del piano)
             Cm
    QUIERO DECIRTE ESTA NOCHE SIN VACILACION
                                                      Cm-A#
    QUE YA NO AGUANTO LO QUE TENGO AQUI EN MI CORAZON
    D#                         A#   G#
       ME GUSTAS TANTO ME ENLOQUESES Y NO
                     G7 D#                      A#    G#
    LO PUEDO YA OCULTAR,   EN TODOS LADOS TE APARECES
                         G7
    COMO ILUSION EN MI MIRAR
    
    estrofa   2............
    
             Cm
    ES UN SECRETO QUE TAN SOLO QUIERO COMPARTIR
                                                Cm-A#
    CON ESOS OJOS QUE ME HAN DADO LUZ AMI VIVIR
    D#                                A#    G#
        QUE EN ESTA NOCHE NO HAY  MAS LUNA
    
  • Intro E Intermedio:
        Fm                      Cm    
    e|--8---------8-------------11-10-8----11-10-8h10p8---
    B|----9-8-------9-8h9p8-------------8---------------8-
    G|--------10------------10----------------------------
    D|----------------------------------------------------
    A|----------------------------------------------------
    E|----------------------------------------------------
        Fm                      Cm               A#       
    e|--8---------8-------------11-10-8-----------
    B|----9-8-------9-8h9p8-------------8---------
    G|--------10------------10--------------------
    D|--------------------------------------------
    A|--------------------------------------------
    E|--------------------------------------------
    
    Trompeta:
        D#                         A#
    e|--11-11--15-11-15--11-10-----10-10--13-10-13--10-------
    B|-------------------------13----------------------13-11-
    
  • que puedo decir
    no hay cancion de este tipo que no me guste
    todas son re buenas
    Intro
    E|--------|--3----3--|---------|--3------|
    A|---3--3-|-3--3-3-3-|--3----3-|-3--3-1--|
    D|--3--3--|----------|-3--3-3--|---------|
    G|--------|----------|---------|---------|
    
    hay mama
    E|----6--6--|---1--1--|-4-04-04-|-3-03-|----|
    A|--6--6--6-|-1--1--1-|---------|------|-1--|
    D|----------|---------|---------|------|----|
    G|----------|---------|---------|------|----|
    
    E|----6--6--|---1--1--|-4-04-04-|-3---33-|
    A|--6--6--6-|-1--1--1-|---------|--5-5---|
    D|----------|---------|---------|---5----|
    G|----------|---------|---------|--------|
    
    quiero decirte
        x7
    E|-------|-------6--6--|---1--1--|-4-04-04-|-3-03-|----|
    A|--3-6--|-3-1-6--6--6-|-1--1--1-|---------|------|-1--|
    D|-----5-|-------------|---------|---------|------|----|
    G|-------|-------------|---------|---------|------|----|
    
    E|----6--6--|---1--1--|-4-04-04-|-3---33-|
    A|--6--6--6-|-1--1--1-|---------|--5-5---|
    D|----------|---------|---------|---5
  • INTRODUCCION:      ORGANO
    
    
    Fm                                       Cm
    DO6 LAb SOL FA   DO6 LAb SOL LAb SOL FA   MI6b RE6 DO6 SOL
    
    
    MI6b RE6 DO6 RE6 DO6 SOL.
    
    Fm                                        Cm
    DO6 LA6 SOL FA   DO6 LAb SOL LAb SOL FA   MI6b RE6 DO6 SOL
    
    Cm       Bb
    MI6b RE6 DO6 RE6 DO6 SOL
    
                        BRASS O TROMPETA
    
    Eb                                      Bb
    MI6b MI6b SOL6 MI6b sol6   MI6b RE6 DO6 RE6 RE6 FA6 RE6 FA6
    
                  Ab                                   G7     Bb
    RE6 DO6 SIb   DO6 DO6 MI6b  DO6 MI6b DO6 MI6b DO6  RE6 SI
    
          G7
    SOL   RE6 SOL SI RE6 SOL6 SOL6.
    
             Cm
      Quiero decirte,
    
    
      esta noche sin vacilación
    
    
      que ya no aguanto
    
                                    Bb
      lo que tengo aqui en mi corazón
    
    Eb                         Bb
      Me gustas tanto me enloqueses
    
    Ab                     G7
      y no lo puedo ya ocultar
    
    Eb                       Bb
      en todas partes te apareces,
    
    Ab          
  • +
    ¡Colabora con nosotros!
    Envíanos tu versión de esta canción

Letra de Más que tu amigo
QUIERO DECIRTE ESTA NOCHE SIN VACILACION
QUE YA NO AGUANTO LO QUE TENGO AQUI EN MI CORAZON
ME GUSTAS TANTO ME ENLOQUESES Y NO
LO PUEDO YA OCULTAR, EN TODOS LADOS TE APARECES
COMO ILUSION EN MI MIRAR
estrofa 2............
ES UN SECRETO QUE TAN SOLO QUIERO COMPARTIR
CON ESOS OJOS QUE ME HAN DADO LUZ AMI VIVIR
QUE EN ESTA NOCHE NO HAY MAS LUNA
QUE COMO TU UNA NUBE MAS
EN MI ALMA CRECE UNA FORTUNA POR TANTA DICHA QUE ME DAS
TE QUIERO, TE QUIERO SE OYE EN MI PECHO
ESE GRANDE AMOR QUE ME HAS HECHO
LATIDO, HA LATIDO TE SIENTO CONMIGO
NMO QUIERO SER MAS QUE TU AMIGO
de ahi se repite el segundo parrafo y despues el coro y ya
pues hay esta la rola la verdad esta bien chida y pues cualquier duda
hay esta mi correo y un saludo pa mi banda de rock y pa todos mis cuates sale
nos vemos chao.. alan




[Más que tu amigo chords][Más que tu amigo cifra]
© LaCuerda.net · aviso legal · privacidad · es · en · pt · contacto