Acordes de Guitarra » M »Manuel García » Un rey y un diez (Tab)

Un rey y un diez
Manuel García

  • Letra y Acordes
    Intro: Em
    
    Verso:
    I)
    
    Em                     C                      D
    Temprano el mismo organillo en la entrada del callejón
    
    D                                         Bm
    Hizo volar la canción que en invierno nos despertó
    
    Em                   C              D
    Y al escucharla di vuelta la pagina 32
    
    D                                          Bm
    Del libro donde pusiste los pétalos de una flor
    
    
    CORO 1:
    Em                         C
    
  • Tablatura
    e|----------------------------------------2-------0--------0---------|
    B|----0--3---1------------0--------------------------0--------0------|
    G|---------------------------2---0------------------0-0------0-0-----|
    D|--------------------1---------------1-------1----2---2-2--2---2-2--|
    A|-2----------------------------------------------2-----2--2-----2---|
    E|----------------0--------------------------------------------------|
    
    Verso:
    Temprano…
           Em       C           D         D            Bm
    e|----------------0--------------2-----------2-----------2----------|
    B|----0---------------1--------------3-----------3-----------3------|
    G|---0---------------0--------------2-2---------2-2---------4-4-----|
    D|--2---------------2--------------0---0-0-----0---0-0-----4---4-4--|
    A|-2--------------3--------------0------0----0------0----2------2---|
    E|------------------------------------------------------------------|
    
    Y al escucharla...
          Em          C              D      D         Bm
    e|----------------0--------------2-----------2-----------2----------|
    
  • +
    ¡Colabora con nosotros!
    Envíanos tu versión de esta canción

Letra de Un rey y un diez
Verso:
I)
Temprano el mismo organillo en la entrada del callejón
Hizo volar la canción que en invierno nos despertó
Y al escucharla di vuelta la pagina 32
Del libro donde pusiste los pétalos de una flor
Y cuando los vi, algo brilló
algo de ti, que había olvidado
Y cuando los vi, algo brilló
Algo de ti, que había Olvidado
II)
De noche el viento que sopla escondido en el corredor
Hizo volar unos naipes que había en el velador
Y al ordenarlos de nuevo y dejarlos junto al reloj
aparecieron los signos que el tiempo ha guardado
Y vi un corazón, un rey y un diez
Y me acordé de esta historia de amor
Y vi un corazón, un rey y un diez
Y me acordé de esta historia de amor



© LaCuerda.net · aviso legal · privacidad · contacto