Acordes de Guitarra » M »Manuel García » Hablar de tí (Tab)

Hablar de tí
Manuel García

Letras, Acordes y Tabs para Guitarra, Bajo y Ukulele

  • --9-----9--
    ------0----
    -----------
    ----7-----7          (varias veces)
    --0--------
    -----------
    
    
    A
    Subiendo el cerro
    el frió se adueñó de mi actitud
          Em9
    y mí gesto,
    A
    cruzando mis brazos contra el pecho
    en la noche
                       D
    como a un niño enfermo.
    D                 D/F#    D
    Despeinaba el viento tu salud
    
  • B:-----0--------0---------
    G:-----------------9------
    D:--7-------------------7-
    A:--------0---------------
    E:------------------------
    
    El arpegio es el mismo durante toda la cancion. Ojala les guste, es
    hermoza cancion, disfrutenla.
    ______________________________________________________________________
    
    Intro: A*
    
    A*
    Subiendo el cerro
    el frió se adueñó de mi actitud
    Em*
    y mí gesto,
    A       A/B
    cruzando mis brazos contra el pecho
    A       A/B
    
  • Intro:  LA
    
    
    |--9------------9--------|---9-----------9-------||
    |--------0------------0--|---------0-------------||
    |------------------------|-----------------------||  x2
    |------7------------7----|------7-----------7----||
    |--0---------0-----------|-0----------0----------||
    |------------------------|-----------------------||
    
    durante el primer verso se toca la intro:
    
     INTRO
    Subiendo el cerro el frío se adueñó de mi actitud y mi
    
    
         MIm9
       gesto,
    
    |--------------0-----------------------0------||
    
  • +
    ¡Colabora con nosotros!
    Envíanos tu versión de esta canción

Letra de Hablar de tí
Subiendo el cerro
el frió se adueñó de mi actitud
y mí gesto,
cruzando mis brazos contra el pecho
en la noche
como a un niño enfermo.
Despeinaba el viento tu salud
y nos ladraba un perro
y todos los barcos con su luz
G (comienza el rasgueo)
alumbraban tu pelo.
Yo sólo quiero que recuerdes eso:
que fui un pasajero
allá entre tus sueños,
que fui un pasajero.
A (hasta el fin)
Porque hablar de ti
es desterrarse
a los paisajes que me acuerdo,
como intentar hallar le llave de tu voz
en los dominios de un secreto.
Me está dando pena esta canción
que sólo era un recuerdo,
de todas maneras me gustó
rondar el cementerio.
Te hablo de eso,
Te hablo de aquello,
te hablo por eso
que fui un pasajero,
allá entre tus sueños.




[Hablar de tí chords][Hablar de tí cifra]
© LaCuerda.net · aviso legal · privacidad · es · en · pt · contacto