Acordes de Guitarra » M »Manuel García » La gran capital (Tab)

La gran capital
Manuel García

Letras, Acordes y Tabs para Guitarra, Bajo y Ukulele

  • A)
                SOL                        MIm
    Llegué a santiago provinciano y Martín Rivas
    DO                                     SIm
    salió a mi encuentro en el metro las gallinas
    DO                                 SIm
    que yo guardaba en mi pecho, me cantaban
           RE   RE/MI  RE/FA#  RE/MI
    Martín Rivas
    
    A)
    Me cantaban las gallinas en el metro
    que allá en mi población la noche es un poema
    que mi patio, mis amigos, las estrellas
    están en mi
    
    A)
    Mi sombra apunta hacia el Mapocho y mis zapatos
    dan con la prisa, en la micro, en el peldaño
    y en las esquinas con los ojos voy tomando
    
  • A)
                SOL                        MIm
    Llegué a santiago provinciano y Martín Rivas
    DO                                     SIm
    salió a mi encuentro en el metro las gallinas
    DO                                 SIm
    que yo guardaba en mi pecho, me cantaban
           RE   DO  SIm  LAm
    Martín Rivas
    
    A)
    Me cantaban las gallinas en el metro
    que allá en mi población la noche es un poema
    que mi patio, mis amigos, las estrellas
    están en mi
    
    A)
    Mi sombra apunta hacia el Mapocho y mis zapatos
    dan con la prisa, en la micro, en el peldaño
    y en las esquinas con los ojos voy tomando
    
  • e|--5-7-8--5/7-5---------------------5h4h5-8h7h8--|
    B|---------------8-7-5-4h3h4--7h6h7---------------|
    G|------------------------------------------------|
    D|------------------------------------------------|
    A|------------------------------------------------|
    E|------------------------------------------------|
    
    
    e|--5-7-8--5/7-5----------------------------------|
    B|---------------8-7-5-4--4h5h4-7-8---------------|
    G|------------------------------------------------|
    D|------------------------------------------------|
    A|------------------------------------------------|
    E|------------------------------------------------|
    
    
    e|----7-8--5/7-5---------------------5h4h5-8h7h8--|
    B|---------------8-7-5-4h3h4--7h6h7---------------|
    G|------------------------------------------------|
    D|------------------------------------------------|
    
  • +
    ¡Colabora con nosotros!
    Envíanos tu versión de esta canción

Letra de La gran capital
Llegué a santiago provinciano y Martín Rivas
salió a mi encuentro en el metro las gallinas
que yo guardaba en mi pecho, me cantaban
Martín Rivas
Me cantaban las gallinas en el metro
que allá en mi población la noche es un poema
que mi patio, mis amigos, las estrellas
están en mi
Mi sombra apunta hacia el Mapocho y mis zapatos
dan con la prisa, en la micro, en el peldaño
y en las esquinas con los ojos voy tomando
fotografías
Fotografió mi zapato en el peldaño
en el Mapocho mi sombra se ha dado un baño
y en las esquinas con los ojos voy tomando
fotografías…
cuando era niño jugué a la gran capital
y ahora en serio con los dados del destino
voy avanzando los cuadritos de un camino
en la ciudad
me cantaban las gallinas en la esquina
que allá en mi población la noche es un poema
que mi patio, mis amigos, las estrellas
están en mi
el diablo incendia las ventanas al poniente
y en el oriente una monja es la cordillera
que espera siempre a que abras las ventanas
y las puertas
el diablo incendia las ventanas al poniente
cantan gallinas, cantan monjas al oriente
que un provinciano se ha marchado
que un provinciano se ha marchado
que un provinciano se ha marchado …
ooo...
lalalaralarai....




[La gran capital chords][La gran capital cifra]
© LaCuerda.net · aviso legal · privacidad · es · en · pt · contacto