Acordes de Guitarra » M »Mandrake y los Druidas » Hombre Rana (Tab)

Hombre Rana
Mandrake y los Druidas

Letras, Acordes y Tabs para Guitarra, Bajo y Ukulele

  • e|---------------------------------------------------------
    B|---------------------------------------------------------
    G|-2b2-2-2-2--------------2/4/6v-6-6-6-6-6-6h7-6-4-2-1/2-1-
    D|-----------4-2-4----2-4----------------------------------
    A|---------------------------------------------------------
    E|---------------------------------------------------------
    
    F#m                 E
    Podés ascender y liberarte de todo
    F#m                 E
    Podés descender y vivir en el fondo
    F#m                         E
    En el medio hay camino de algas venenosas,
    F#m                    E
    Son fosforescentes, brillan como focos
    
    e|----------14-12----------12------------------14-12-------------12--------
    B|----------------------------14-12----------------------------------14--12b
    G|----------------------------------------------------------------------------
    D|-------12-------------12-------------------12----------------12-------------
    
  • +
    ¡Colabora con nosotros!
    Envíanos tu versión de esta canción

Letra de Hombre Rana
Podés ascender y liberarte de todo
Podés descender y vivir en el fondo
En el medio hay camino de algas venenosas,
Son fosforescentes, brillan como focos
Pocos saben los secretos del mundo anfibio
Pocos saben vivir en dos mundos distintos
Traidores, desertores, los fieles de Judas
Un beso en la mejilla y siempre a la fuga
Hombre rana, las tormentas,
Las crecidas te apartaron de tu charca
Regresaste donde juraste que nunca más volverías
Hombre rana
Codiciabas callado esos ojos privados
Plantaste intrigas y creció el daño
El mundo alrededor, todo se derrumbaba
Así lo planeaste, así lo deseabas
Y al fin te apropiaste de todo lo de ella
De su vida, de su cuerpo, también de su rabia
El odio que hacia a tí, ella te profesaba
Se volvió un conjuro, se volvió tu trampa
Y de a poco tu apariencia fue mutando
Vos mismo por ti, sentiste asco
No aguantaste más su mirada sonriente
Preferiste la charca y hundirte en el barro
Hombre rana, las tormentas,
Las crecidas te apartaron de tu charca
Regresaste donde juraste que nunca más volverías
Hombre rana
Hombre rana, las tormentas,
Las crecidas te apartaron de tu charca
Regresaste donde juraste que nunca más volverías
Hombre rana
Outro: Solo improvisado o (G# - F#)x8




[Hombre Rana chords][Hombre Rana cifra]
© LaCuerda.net · aviso legal · privacidad · es · en · pt · contacto
DINAMICO