Tablatura para Bajo de Maná: Dime Luna
Conexión · Inscripción
Letras y Acordes
Pantalla Completa
Imprimir
Versión Texto
Añadir Favorito
Otras Versiones

Mostrar Diagramas
Desfile Automático
Formato del Texto


Maná
Dime Luna(BAJ)
calidad:
mana1011
AUTOR: Fher Olvera
ALBUM: Amar es Combatir (2006)
Enviado por barrichelo
        "Dime luna..."
G------+---------------------+-------4---------------+--------------------+
D------+---2-5-2-----3-5-3-5-+---2-5---5---3-5-------+---2-5-2-----3-5-3-5+
A-3--3-+-3-------3-5---------+-3---------5-------0-2-+-3-------3-5--------+
E------+---------------------+-----------------3-----+--------------------+


G--------4---------------------
D----2-5---5---7-7-7-7--7-5/---
A--3---------5-----------------
E------------------------------



"Ya cambié mi mundo..."

G-----5------5-5--9--12-------4-5-----------9--+-2-----------------------
D---7---7-----------------2-5-------7-7--10----+---5--3-----3-4-----4-5--
A-8--------------------------------------------+--------3-0-----3-0------
E----------------------------------------------+-------------------------


"Ahí está la luna..."

G----------------4------------------+--------------2h4-------------------
D-----2-5----2-5----3--3-3---5--5-5-+-----2-5----2-----5--3--3-3---5--5-5
A---3------3------------------------+---3------3-------------------------
E-3---------------------------------+-3----------------------------------



G------------------------------------------------------------------------
D------------------------------------------------------------------------
A--------3-----3-2---5--5-0-5--5-5-0-5-----------------------------------
E-5--0-5---5-3-----5-------------------3---------------------------------


Final

G----------------------+------------------------
D------3--3-3---5--5-5-+-----3--3-3--5--5-5-----
A--3/------------------+---------------------3--
E----------------------+------------------------
Este fichero es trabajo propio de su transcriptor y representa su interpretación personal de la canción. El material contenido en esta página es
para exclusivo uso privado, por lo que se prohibe su reproducción o retransmisión, así como su uso para fines comerciales.
© LaCuerda.net · Aviso Legal · Privacidad