Tablatura para Bajo de Maná: Dejame entrar
Conexión · Inscripción
Letras y Acordes
Pantalla Completa
Imprimir
Versión Texto
Añadir Favorito
Otras Versiones

Mostrar Diagramas
Desfile Automático
Formato del Texto


Dejame entrar(BAJ)

Maná

calidad:
mana0213
AUTOR: Fehr
ALBUM: Cuando Los Angeles Lloran (95)
Enviado por mauricio
Esta cancion es puro slap

en las cuerdas E y A se golpea
en las cuerdas D y G se jala
para toda la cancion
bueno ahi les va

Slap
E|--5----|ej LA golpear
A|-------|
D|----7--|       jalar
G|-------|

Intro y 1er verso sin bajo

Bateria
E|-----------|
A|-----------|
D|--5/7-5/7--| jalar cuerda
G|-----------|

Quiero vivir
E|--5-5----|-5-555-|-3-33---|-3-333-|
A|---------|-------|--------|-------|
D|-----557-|-------|-----35-|-------|
G|---------|-------|--------|-------|

---------|----------|-5--55--5---|-5--|
-5--555--|-55--5-5--|--5---5--5--|----|
---------|----------|------------|----|
--7----7-|---7--7-7-|------------|----|

Solo
E|--5-|---|-5-5--|-5-|---|-5-----|
A|----|---|--5-5-|---|---|--5-3--|
D|----|-7-|------|---|-7-|-------|
G|----|---|------|---|---|-------|

Deja clavarme
E|--5-5----|-5-5----|-5-5----|-5-5-5-5---|
A|---------|--------|--------|-----------|x3
D|-----557-|--7-557-|----557-|------5-7--|
G|---------|--------|--------|-----------|

deja clavarme ya
E|--5-5----|---|----|
A|---------|-3-|-5--|
D|-----557-|---|----|
G|---------|---|----|

solo
E|--5-5-5-5--|-5-5-3-4-|
A|-------3-3-|---------|
D|-----------|---------|x2
G|-----------|---------|


E|-----------------|
A|-----------------|
D|--35555-----7/0--|
G|-------6/76------|

E|----------|
A|--3-/5/3--|
D|----------|
G|----------|

E|----------|-1/3/1-1/3/1--|
A|--3/5-3/5-|--------------|
D|----------|--------------|
G|----------|--------------|

ohh yea
E|--5-5-5------|-5-5-------|-5-5-5------|-5-5-5-----|
A|-------5-3-5-|-----3-5-3-|------5-3-5-|------3-0--|x2
D|-------------|-----------|------------|-----------|
G|-------------|-----------|------------|-----------|

No, no
E|--5--5--5--5--|-5-5-5---5----|-5-5--|
A|---5--5--5----|-------3---3--|------|
D|------------7-|--------------|------|
G|--------------|--------------|------|

quiero
E|--5-5-5-------|-5-5-5---5-|-3-33---|-3-333-|
A|--------5-3-5-|-------3---|-----3--|-------|
D|--------------|-----------|------5-|-------|
G|--------------|-----------|--------|-------|

---------|-------|-----5--|
-5--555--|-5-5-5-|-5-3----|
---------|-------|--------|
--7----7-|-------|--------|


Dejame entrar¡¡
E|--5-5-55-5--|-5--|
A|--------3-3-|----|
D|------------|----|
G|------------|----|

Solo
E|--5-|---|-5-5--|-5-|---|-5-----|
A|----|---|--5-5-|---|---|--5-3--|
D|----|-7-|------|---|-7-|-------|
G|----|---|------|---|---|-------|

Deja clavarme
E|--5-5----|-5-5----|-5-5----|-5-5-5-5---|
A|---------|--------|--------|-----------|x3
D|-----557-|--7-557-|----557-|------5-7--|
G|---------|--------|--------|-----------|

deja clavarme ya
E|--5-5----|---|----||-5-|
A|---------|-3-|-5--||---|
D|-----557-|---|----||---|
G|---------|---|----||---|

atte miauricio gatolar
Este fichero es trabajo propio de su transcriptor y representa su interpretación personal de la canción. El material contenido en esta página es
para exclusivo uso privado, por lo que se prohibe su reproducción o retransmisión, así como su uso para fines comerciales.

© LaCuerda.net · Aviso Legal · Privacidad