Tablatura para Guitarra de Maná: Cuando los Angeles Lloran (unplugged)
Conexión · Inscripción
Letras y Acordes
Pantalla Completa
Imprimir
Versión Texto
Añadir Favorito
Otras Versiones

Mostrar Diagramas
Desfile Automático
Manipular Acordes
Formato del Texto


Maná
Cuando los Angeles Lloran (unplugged)(TAB)
calidad:
mana0196
AUTOR: Fher
ALBUM: Unplugged (1999)
Enviado por Gerado
Capo 2
Tab by: Gerardo Moran

Aqui esta esta rola que estoy mas que 100% seguro que asi se
toca en por el grande Sergio Vallin. Disfrutenla pues yo sigo
practicandola a mas no poder.


e--3------3-0-------------I-4-----4-3-0--------
B--2----2-------2-0-------I-4---4-------2------
G--3--3---------3-0(1--)--I-5-5-----------0----
D-(0---------)-----(0--)--I--------------------
A-------------------------I----------(0-------)
E--------------(3------)--I(0-----)------------

e--3------3-0-------------I-4-----4------------
B--2----2-------2-0-------I-4---4-----3-2p0-2--
G--3--3---------3-0(1--)--I-5-5----5---------2-
D-(0---------)-----(0--)--I--------------------
A-------------------------I----------(0-------)
E--------------(3------)--I(0-----)------------

e--3X-5-3-2-0---0-----0----I-2--------------------------
B--2X---------3-2---2---3--I---5-3-2-0-0-----0---3---0--
G--3X-----------2-2-----4--I-----------0---0---2---0----
D--0X-------------------4--I-----------0-0--------------
A--------------(0------)---I----------------------------
E--------------------------I----------(3---------------)

e-0h2-3------------------I
B-------3-3-2p0-2--------I
G----------------(2---)--I
D------------------------I
A----------(0---------)--I
E-----3------------------I

e--3X-5-3-2-0---0-----0----I-2-------------------------
B--2X---------3-2---2---3--I---5-3-2-0-0-----0---3---0-
G--3X-----------2-2-----4--I-----------0---0---2---0---
D--0X-------------------4--I-----------0-0-------------
A--------------(0------)---I---------------------------
E--------------------------I---------(3----------------)

e-0h2-3------------------I-----------2-3-5-----2p0-------
B-------3-3-2p0-2--------I-----2-3-5-----3--3------3p2h3-
G----------------(2---)--I-2-4-----------2--2------------
D------------------------I-------------------------------
A--------------(0-----)--I------------------2-(0--------)
E-----3------------------I-------------------------------

   (C#m)
e----------------I
B---------3p2h3--I
G------(4------)-I
D----(4--------)-I
A--(2----------)-I
E----------------I

Saludos a Guadalajara mi tierra natal y tmbn la de Maná,
y si estas leyendo esto Sergio, porras para tu disco que
me gusto mucho y se espera con ansias, escuchar de la
banda pronto y el nuevo CD del 2010!
Este fichero es trabajo propio de su transcriptor y representa su interpretación personal de la canción. El material contenido en esta página es
para exclusivo uso privado, por lo que se prohibe su reproducción o retransmisión, así como su uso para fines comerciales.
© LaCuerda.net · Aviso Legal · Privacidad